PDA

View Full Version : Tabs from a uknow song



linkirrius
06-21-2005, 02:41 PM
anyone have seen the video of Recording Cant Get My? at the end of that it appears a song that i think is the intro of The noose, but i dont know, please anyone can take the tab from that song and put that here?

HeadAroundU
06-21-2005, 02:47 PM
Its not The noose!
Its called "Pass me by"

linkirrius
06-21-2005, 03:16 PM
Really is a Offspring Song?

HeadAroundU
06-21-2005, 03:25 PM
Really is a Offspring Song?
If we are talking about "Recording the album Splinter", Yes Its fragment of unreleased Offspring song :cool:
but I dont have tabs........

offspring_freak_3
06-21-2005, 04:40 PM
If we are talking about "Recording the album Splinter", Yes Its fragment of unreleased Offspring song :cool:
but I dont have tabs........


nobody has the tab of that music :cool:

linkirrius
06-21-2005, 04:52 PM
i mean someone who can play that fragment, there are good guitarrist who can play only hearing it and they can make the tabs and put here for all the people

Ceejio21
06-21-2005, 05:11 PM
Hmm... Are you sure it's an unreleased Offspring song? For me it sounds alot like the main riff to Dammit, I Changed Again but played at a really slow tempo. Check it out, see what you think.

Ceejio21
06-22-2005, 10:11 AM
Anyone else think it may be Dammit, I Changed Again?

Ceejio

Chainsaw
06-22-2005, 01:15 PM
E||------------------------------------------|----------------------|
B||------------------------------------------|----------------------|
G||------------------------------------------|----------------------|
D||------------------------------------------|----------------------|
A||--4---------7----6----7----4---------7----|--6----7----0---------|
E||-------4------------------------4---------|-----------------0----|



----------------------|----------------------|
----------------------|----------------------|
----------------------|----------------------|
----------------------|----------------------|
--7----6----7----2----|-------6----4----6----|
----------------------|--2-------------------|



------------------------------------------|----------------------|
------------------------------------------|----------------------|
------------------------------------------|----------------------|
------------------------------------------|----------------------|
--4---------7----6----7----4---------7----|--6----7----0---------|
-------4------------------------4---------|-----------------0----|



----------------------|----------------------||
----------------------|----------------------||
----------------------|----------------------||
----------------------|----------------------||
--7----6----7----2----|-------2/---4/---6----||
----------------------|--2-------------------||



figure out the rhythm(i don't know how to spell that word) yourself

Kitten
06-22-2005, 01:18 PM
Its not The noose!
Its called "Pass me by"

No one bar The Offspring knows that for certain, there were other songs left off Splinter.