PDA

View Full Version : Revelations solo tab



TwiztidFirestarter
07-05-2005, 09:48 PM
Does anyone have the tab to the solo bit at the beginning of the song? I've looked everywhere and I can't seem to find it.

barangatang
07-05-2005, 09:51 PM
is this it?


A
|---------------------------------------------------------------|
|---------------------------------------------------------------|
|-----2-----2-----2---2-----2-----2---2-----2-----2-----0-----3-|
|-------3-----3---------5-----5---------3-----3-------2-----3---|
|---0-----0-----0---0-----0-----0---0-----0-----0---3-----1-----|
|---------------------------------------------------------------|



Riff B
|---------------------------------------------------------------------------------|
|---------------------------------------------------------------------------------|
|--------------------------------------------------------------0----2---2---------|
|------33----33----3-----55----55----5-----33----33----3--2222-2----2---2---------|
|---00-00-00-00-00-0--00-00-00-00-00-0--00-00-00-00-00-0--3333-3--0-1-0-1---------|
|---------------------------------------------------------------------------------|
.. .. .. .. .. .. .. .. .. .... . .


Riff C
|----------------------------------------------------------------|
|----------------------------------------------------------------|
|---4-5-6-0-5-6-9-8-0-5-6-5---4-0--------------------------------|
|---------------------------6------------------------------------|
|----------------------------------------------------------------|
|----------------------------------------------------------------|




Riff D
|---------------------------------------------------------------------------|
|---------------------------------------------------------------------------|
|---9-----9-----9-9---7----7----77--10----10----1010--9-----9-----9-9-------|
|---10----10----1010--9----9----99--12----12----1212--10----10----1010------|
|------00----00---------00---00--------00----00----------00----00-----------|
|---------------------------------------------------------------------------|


Solo (Under riff D) Repeat 4x
|-------------------------/20-19-17-12~--------------|-----------------------|
|----------------------------------------------------|-----------------------|
|---5h7p4h5p10-10-9-10-9~---------------/5-4-0-0h2---|-5h7p4h5p10-10-9-10-9~-|
|----------------------------------------------------|-----------------------|
|----------------------------------------------------|-----------------------|
|----------------------------------------------------|-----------------------|