PDA

View Full Version : Unknown songs



OffspringerD@n
08-07-2005, 05:18 PM
Does anyone know anything about the songs ONFALL and HEAVY METAL by the offspring?

I havenīt found any lyrics yet but I have the tabs

Heavy metal:

intro:
----------------------------------------------------------------
----------------------------------------------------------------
----------------------------------------------------------------
----------------------------------------------------------------
----------------------------------------------------------------
-0b2~~~~~~~~r1~~~~~~r0~~-------------------------------

Main riff:

-----------------------------------------------------------------
-----------------------------------------------------------------
----------7~~~~--7--7---9-----9~~~~~--9--------------------
--9~~~~~~--7~~~~~~--7--7------9-----9~~~~~--9---------
--9~~~~~~--5~~~~~~--5--5------7----7~~~~~~--7--------
--7~~~~~~----------------------------------------------------


----------------------------------------------------------------
----------------------------------------------------------------
-12\11\12/11\12/11--9--9--7------9------9~~~~~~------------
-12\11\12/11\12/11--9--9--7------9------9~~~~~~------------
-10\-9\10/-9\10/-9--7--7--5------7------7~~~~~~-------------

guitar 1 plays the intro
guitar 1 plays the main riff
2x main riff with 2 guitars and drums
guitar 1:mid distortion
guitar 2:heavy distortion

Okay, I know thats wierd but I copied that exactly as it is in the link i found it in.

Onfall:

intro:

E-5-5-5-5-3-3----5--21--2--23--1--3--21--1--12-23---------
A--------------5-5----3-21--1---21-3---23-23--1--12-------

Well, thats it. I dont know the lyrics or anything except that. tell me what u think

NDM1
08-07-2005, 05:28 PM
IF you look at heavy metal, maybe its just me cuz i just took a quick glance, but isnt that the main riff to Iron Man?

OffspringerD@n
08-07-2005, 05:36 PM
I donīt know. maybe. have you ever heard of these song before?

NDM1
08-07-2005, 05:37 PM
that IS iron man. I just tried it out. If you allign the tabs right then yeah its the main riff from iron man, I dont no the other one,

OffspringerD@n
08-07-2005, 05:40 PM
To tell u the truth,iīve never heard of Iron Man before. Is it a band? or song?
if itīs a song, why do they call it Heavy Metal?

NDM1
08-07-2005, 05:43 PM
Wow that is really weird. Almost everyone i know has heard iron man before. It is a song that black sabbath did. Its got a CLASSIC riff. They call it heavy metal because at one live show Dexter goes "Wanna hear noodles play heavy metal??" So noodles does that classic riff.

Apathy
08-07-2005, 05:43 PM
To tell u the truth,iīve never heard of Iron Man before. Is it a band? or song?
if itīs a song, why do they call it Heavy Metal?

I'm almost positive you've heard the song.

ya know...

I AM IRONMAN
NA NA NA NA NA NA NA NAA NAA NAA

Sorry if I look stupid, but I bet you've heard it. And Most likely, Those songs are just someone who made a mistake trying to write a tab.

OffspringerD@n
08-07-2005, 05:46 PM
Oh yeah!! I think Iīve heard that before. not sure though. cool, we know one song, but what about Onfall? Any ideas?

NDM1
08-07-2005, 05:47 PM
Like apathy said im sure youve heard this song.

"Ozzy lost his mind, Can he see or is he blind?"
(late)

NDM1
08-07-2005, 05:48 PM
Im not sure what that other song is... It looks pretty short..

OffspringerD@n
08-07-2005, 05:57 PM
I think it keeps on repeating itself until the song ends.

forever_and_a_day
08-08-2005, 01:16 PM
on a live recording of gone away, dexter goes to you wanna hear some heavy metal, noodles plays the riff from iron man, then they kick into the song gone away, i used to have that live recording, however gone away is played abit sloppy

DDD
08-11-2005, 11:57 AM
offspring played it at rockpalast 1997 first dexter asked "you want to hear noodles plays some heavy metal" then they plays first 30? seconds of iron man
someone ( director? ) called this song metal interlude
P.S. you really dont know iron man??? :eek:

sourskittle
08-11-2005, 04:35 PM
The 1st song is definitely iron man and i think the second song is a craapy tab of the intro to "The Noose"