PDA

View Full Version : "Pass me by" riff



GRfan
10-01-2005, 04:29 AM
Can anyone please upload an audio-clip of the so-called "Pass Me By" riff?

Hypodermic_89
10-01-2005, 05:06 AM
that song doesn't exist

Idiot
10-01-2005, 05:16 AM
But the short clip of whatever that was does. Apparently it was an early riff of "Race Against Myself".

HeadAroundU
10-01-2005, 05:57 AM
But the short clip of whatever that was does. Apparently it was an early riff of "Race Against Myself".
I don't think so!

It's at the end of the video.
http://www.savefile.com/files/6294022

Living in Chaos
10-02-2005, 02:59 AM
^ Thanks heaps for that :) I think it sounds pretty good

ygokazuki
10-02-2005, 05:43 AM
|--------------|--------------|--------------|-------------|
|--------------|--------------|--------------|-------------|
|--------------|--------------|--------------|-------------|
|--------------|--------------|--------------|-------------|
|-4---7-6--7---|-4---7-6--7---|-0---7-6--7---|-2---6-4--6--|
|---4----------|---4----------|---0----------|---2---------|


|--------------|--------------|---------------|---------------|
|--------------|--------------|---------------|---------------|
|--------------|--------------|---------------|---------------|
|--------------|--------------|---------------|-----1-4-------|
|-4---7-6--7---|-4---7-6--7---|-0---7-6--7----|-2-2-----------|
|---4----------|---4----------|---0-----------|---------------|Tab I made just now.

SkyRocker
10-02-2005, 05:49 AM
Tab you can find too using the search button...

Titus
10-02-2005, 10:13 AM
Apparently it was an early riff of "Race Against Myself".

I thought the same thing =)