PDA

View Full Version : Kick Him When Hes Down Tab



pretty_fly_white_guy858
01-24-2006, 07:15 PM
I cant find a good one anywhere. Anybody have a good one I can use?

DexterWannabe
01-24-2006, 11:45 PM
www.ultimate-guitar.com

Jojan
01-25-2006, 05:56 AM
Bass tab: http://www.sci.fi/~k129875/bass/offsprng/ignition/kickhi-b.txt

KICK HIM WHEN HE'S DOWN by The Offspring. Album : Ignition (1992)
One of the coolest songs to play on Ignition. Well that`s enough talking,
let`s go!
:
# main # X2
G-------------------------------------|
D---4-------2---------4---4---4---4---|
A---------------2---------------------|
E-------------------22--22--22--22----|
:
# verse # X2
G---------------------------------------------------------------------|
D---4-4444442-22----4-4444444444444-4-4444442-22----0-0000--2-2222----|
A---------------2-22----------------------------2-22------0-------2---|
E---------------------------------------------------------------------|
:
# chorus # X2 *=play 4X #=play 14X
G-|--*---*-------*|--#--|
D-|-4---0----*--2-|-2---|
A-|---------0-----|-----|
E-|-----3X--------|-----|
:
Play mainX2, verseX2 and chorusX2.
:
# bridge # *=play... a lot (2:06-2:14)
G----*--|
D---2---|
A-------|
E-------|
:
Then play verseX2 and chorusX3 (last time last chord a lot again- til the end)
Done!
Tabbed by Jussi Heinonen 15.09.1999.



Guitar tab: http://www.sci.fi/~k129875/offsprng/ignition/KICKHIM.txt

KICK HIM WHEN HE`S DOWN by The Offspring. Album: The Offspring - Ignition
(1992)
One of the coolest songs to play on Ignition. Well that`s enough talking,
let`s go!
:
# intro # *=play 15X
E------------------------------------------------------------|
B------------------------------------------------------------|
G----*---*--9-9-9-9-9-9-9--9-9-----7-7-----5---4---3---------|
D---6---9---7-7-7-7-7-7-7--7-7-9-9-5-5-7-7-3-5-2-4-1-3-3-3---|
A---4---7----------------------7-7-----5-5---3---2---1-1-1---|
E------------------------------------------------------------|
: \_____________________palm-muted_____________________/
:
# main-riff # X2 m=palm-mute
E------------------------------------------|
B------------------------------------------|
G--11---9----------------------------------|
D--11---9--9--4-4-4--4-4-4--4-4-4--4-4-4---|
A---9---7--9--4-4-4--4-4-4--4-4-4--4-4-4---|
E----------7--2-2-2--2-2-2--2-2-2--2-2-2---|
: m m m m m m m m
:
# verse # X2 *=play X6 m=palm-mute
E-------------------------------------------------------------------|
B-------*----------------*----*-------*-----------------------------|
G--11-11---9-9------11-11---11---11-11---9-9------7-7-7---9-9-9-9---|
D--11-11---9-9-9-9--11-11---11---11-11---9-9-9-9--7-7-7-7-9-9-9-9---|
A---9--9---7-7-9-9---9--9----9----9--9---7-7-9-9--5-5-5-7-7-7-7-7---|
E------m-------7-7------m----m-------m-------7-7--------5-----------|
:
# chorus # X2 (brackets X3) *=play X14
E-----------------------------|
B--------------------------*--|
G-(11-11--7-7-------9-9)--9---|
D-(11-11--7-7--7-7--9-9)--9---|
A-(-9--9--5-5--7-7--7-7)--7---|
E-(------------5-5-----)------|
:
Play main-riff, verse and chorus.
: *=play many times
# bridge # X3 # bridge2 # # bridge3 # (during bridge2)
E--------------------------| E-------| E-------------------------------|
B--------------------------| B----*--| B-------------------------------|
G--11-11-11-14---9-9-9-----| G---9---| G-------------------------------|
D--11-11-11-14---9-9-9-9---| D---9---| D------------------9-11-12-14---|
A---9--9--9-12---7-7-7-9---| A---7---| A---7---9--11--12---------------|
E----------------------7---| E---m---| E-------------------------------|
:
Play verse and chorus X3 (play end-chord MANY times).
Slide down and it`s done!
Tabbed by Jussi Heinonen 02.07.1997.

Sinister
01-25-2006, 06:24 AM
Bass tab: http://www.sci.fi/~k129875/bass/off...on/kickhi-b.txt

KICK HIM WHEN HE'S DOWN by The Offspring. Album : Ignition (1992)
One of the coolest songs to play on Ignition. Well that`s enough talking,
let`s go!
:
# main # X2
G-------------------------------------|
D---4-------2---------4---4---4---4---|
A---------------2---------------------|
E-------------------22--22--22--22----|
:
# verse # X2
G---------------------------------------------------------------------|
D---4-4444442-22----4-4444444444444-4-4444442-22----0-0000--2-2222----|
A---------------2-22----------------------------2-22------0-------2---|
E---------------------------------------------------------------------|
:
# chorus # X2 *=play 4X #=play 14X
G-|--*---*-------*|--#--|
D-|-4---0----*--2-|-2---|
A-|---------0-----|-----|
E-|-----3X--------|-----|
:
Play mainX2, verseX2 and chorusX2.
:
# bridge # *=play... a lot (2:06-2:14)
G----*--|
D---2---|
A-------|
E-------|
:
Then play verseX2 and chorusX3 (last time last chord a lot again- til the end)
Done!
Tabbed by Jussi Heinonen 15.09.1999.

Guitar tab: http://www.sci.fi/~k129875/offsprng...ion/KICKHIM.txt

KICK HIM WHEN HE`S DOWN by The Offspring. Album: The Offspring - Ignition
(1992)
One of the coolest songs to play on Ignition. Well that`s enough talking,
let`s go!
:
# intro # *=play 15X
E------------------------------------------------------------|
B------------------------------------------------------------|
G----*---*--9-9-9-9-9-9-9--9-9-----7-7-----5---4---3---------|
D---6---9---7-7-7-7-7-7-7--7-7-9-9-5-5-7-7-3-5-2-4-1-3-3-3---|
A---4---7----------------------7-7-----5-5---3---2---1-1-1---|
E------------------------------------------------------------|
: \_____________________palm-muted_____________________/
:
# main-riff # X2 m=palm-mute
E------------------------------------------|
B------------------------------------------|
G--11---9----------------------------------|
D--11---9--9--4-4-4--4-4-4--4-4-4--4-4-4---|
A---9---7--9--4-4-4--4-4-4--4-4-4--4-4-4---|
E----------7--2-2-2--2-2-2--2-2-2--2-2-2---|
: m m m m m m m m
:
# verse # X2 *=play X6 m=palm-mute
E-------------------------------------------------------------------|
B-------*----------------*----*-------*-----------------------------|
G--11-11---9-9------11-11---11---11-11---9-9------7-7-7---9-9-9-9---|
D--11-11---9-9-9-9--11-11---11---11-11---9-9-9-9--7-7-7-7-9-9-9-9---|
A---9--9---7-7-9-9---9--9----9----9--9---7-7-9-9--5-5-5-7-7-7-7-7---|
E------m-------7-7------m----m-------m-------7-7--------5-----------|
:
# chorus # X2 (brackets X3) *=play X14
E-----------------------------|
B--------------------------*--|
G-(11-11--7-7-------9-9)--9---|
D-(11-11--7-7--7-7--9-9)--9---|
A-(-9--9--5-5--7-7--7-7)--7---|
E-(------------5-5-----)------|
:
Play main-riff, verse and chorus.
: *=play many times
# bridge # X3 # bridge2 # # bridge3 # (during bridge2)
E--------------------------| E-------| E-------------------------------|
B--------------------------| B----*--| B-------------------------------|
G--11-11-11-14---9-9-9-----| G---9---| G-------------------------------|
D--11-11-11-14---9-9-9-9---| D---9---| D------------------9-11-12-14---|
A---9--9--9-12---7-7-7-9---| A---7---| A---7---9--11--12---------------|
E----------------------7---| E---m---| E-------------------------------|
:
Play verse and chorus X3 (play end-chord MANY times).
Slide down and it`s done!
Tabbed by Jussi Heinonen 02.07.1997.
__________________

I think it's more readable that way.