PDA

View Full Version : Dirty magic guitar tab.



Strider_NLD
02-18-2006, 04:07 PM
I have looked true all the internet, and I still havent found the correct Dirty Magic Guitar tab, can anyone post it please.

thx allot

DICKON
02-18-2006, 04:10 PM
i play:


A|---------7------7------10------9---------2---3--2-------|
E|--3-3/55---5--5---5/88----8/7---7------0---0------------|

uvutuy
02-18-2006, 04:10 PM
what websites have you checked?

Hux
02-18-2006, 04:11 PM
http://www.ultimate-guitar.com/tabs/offspring_tabs2.htm

This has a few versions and unfortunately I'm not sure which is the correct one. The site is reliable though. There should be others which can help you with the right tabs.

Strider_NLD
02-18-2006, 04:37 PM
thx allot m8s, Really usefull :)

but is this any good too?

E-------------------------------------------
B------------------------------------------
G------------------------------------------
D--------2-------2--------5----------4----
A-0--0----0---0---0----3-3---3---2-2---2
E-------------------------------------------

noodle654
02-18-2006, 05:12 PM
I made a correct one, I will write it up for you later, Im not home right now

mrconeman
02-18-2006, 05:14 PM
Its not too hard to figure out where the tabs have gone wrong, most of them are pretty close on websites anyway, If you have the greatest hits DVD watch them play it acousticly, and copy what they do.

Nounou
02-18-2006, 05:43 PM
Check the guitar pro tabz they're better :)

pretty_fly_white_guy858
02-19-2006, 10:47 AM
thx allot m8s, Really usefull :)

but is this any good too?

E-------------------------------------------
B------------------------------------------
G------------------------------------------
D--------2-------2--------5----------4----
A-0--0----0---0---0----3-3---3---2-2---2
E-------------------------------------------

No. I just played that, sounds all weird. Play the one on low e.

kaze
02-19-2006, 12:26 PM
You're gonna want to drop the strings down half a step as well from what I remember. Never sounds right if you try and play it to the cd.

Teemu
02-19-2006, 01:41 PM
the version on the cd is with standard tuning, the live versions (including the "video collection" one), is 1/2 step down...

this is the version from my ignition tab book


intro/verse

A ----------------7---------10------9-------2----3-2-----2-----3-2-------
E -0-0-(1)---5-5---5---8-8----7-7----7--0----0-------0-----0-------3/5---


()= ghost note