PDA

View Full Version : Dirty magic guitar tab.



Strider_NLD
02-18-2006, 03:07 PM
I have looked true all the internet, and I still havent found the correct Dirty Magic Guitar tab, can anyone post it please.

thx allot

DICKON
02-18-2006, 03:10 PM
i play:


A|---------7------7------10------9---------2---3--2-------|
E|--3-3/55---5--5---5/88----8/7---7------0---0------------|

uvutuy
02-18-2006, 03:10 PM
what websites have you checked?

Hux
02-18-2006, 03:11 PM
http://www.ultimate-guitar.com/tabs/offspring_tabs2.htm

This has a few versions and unfortunately I'm not sure which is the correct one. The site is reliable though. There should be others which can help you with the right tabs.

Little_Miss_1565
02-18-2006, 03:31 PM
Here's the version of the Dirty Magic tab of the opening riff that I've played (and recorded, just fucking around nothing for sale plz don't sue my kthx). I just changed parts of the tab already posted here so the spaces don't accurately reflect the time in between chords.



e--------------------------------------------------------------------------|
B--------------------------------------------------------------------------|
G--------------------------------------------------------------------------|
D--------------------------------------------------------------------------|
A--------------7------7-----------10-9---------9-----I-----2---3--2v-I-----|
E--3-3->>>--55--5--5-----------88-----------77---7---I---0---0-----0-I-----|


*play what's in between the I's twice* On the second and subsequent repeats of this riff, only play the open E string once before sliding up to the 5th fret.

Chords for the chorus:
(this is where I get a little unsure...I don't have my guitar with me here at school, only my bass, so I'm going off the root notes for the chords and I might be confusing the bassline with the chords here...you're all smart kids, you can figure it out.)

(Oh, and listen to the CD for the timings etc. for all these chords)

PULL THE SHADES...
D>>E (open E twice) E; D>>E (open E twice) E E
G D
D>>E (open E twice) E; D>>E (open E twice) E E
G D
STOOOOOOOOOP...
A C B E

[repeat opening riff]

I'd tab out the solo, but like I said, I only have my bass with me, so I'm missing the two strings the damn thing is on. :) If someone found it on the intarweb somewhere I'd be glad to tell you if it's right or not.

EDIT: Okay, so I just listened to the song while looking at the tab I just made to see if it was correct...changed a bit of it back to what it was.

Strider_NLD
02-18-2006, 03:37 PM
thx allot m8s, Really usefull :)

but is this any good too?

E-------------------------------------------
B------------------------------------------
G------------------------------------------
D--------2-------2--------5----------4----
A-0--0----0---0---0----3-3---3---2-2---2
E-------------------------------------------

noodle654
02-18-2006, 04:12 PM
I made a correct one, I will write it up for you later, Im not home right now

mrconeman
02-18-2006, 04:14 PM
Its not too hard to figure out where the tabs have gone wrong, most of them are pretty close on websites anyway, If you have the greatest hits DVD watch them play it acousticly, and copy what they do.

Nounou
02-18-2006, 04:43 PM
Check the guitar pro tabz they're better :)

Little_Miss_1565
02-18-2006, 06:02 PM
but is this any good too?

E-------------------------------------------
B------------------------------------------
G------------------------------------------
D--------2-------2--------5----------4----
A-0--0----0---0---0----3-3---3---2-2---2
E-------------------------------------------

It might be, but the other versions have all the right open strings and sliding notes.

pretty_fly_white_guy858
02-19-2006, 09:47 AM
thx allot m8s, Really usefull :)

but is this any good too?

E-------------------------------------------
B------------------------------------------
G------------------------------------------
D--------2-------2--------5----------4----
A-0--0----0---0---0----3-3---3---2-2---2
E-------------------------------------------

No. I just played that, sounds all weird. Play the one on low e.

kaze
02-19-2006, 11:26 AM
You're gonna want to drop the strings down half a step as well from what I remember. Never sounds right if you try and play it to the cd.

Teemu
02-19-2006, 12:41 PM
the version on the cd is with standard tuning, the live versions (including the "video collection" one), is 1/2 step down...

this is the version from my ignition tab book


intro/verse

A ----------------7---------10------9-------2----3-2-----2-----3-2-------
E -0-0-(1)---5-5---5---8-8----7-7----7--0----0-------0-----0-------3/5---


()= ghost note