PDA

View Full Version : Burn It Up tab



noodle654
02-18-2006, 09:59 PM
ok I have come across way to many tabs for this, that are very wrong. The begining of this song sounds like a power chord. Many people have it on like the 3rd string 3 fret single notes. Anybody know the correct most accurate tab for this song. Oh yeah, I can play this song on the drums! :)

Cthulhu
02-18-2006, 11:32 PM
Try powerchording the single notes they tell you to play. or tab it yourself, its a pretty easy song to tab.

Jojan
02-19-2006, 07:15 AM
http://www.sci.fi/~k129875/offsprng/ignition/BURNITUP.txt

BURN IT UP by The Offspring. Album: The Offspring - Ignition (1992)
Otherwise this could be easy, but it`s so hard to find the right rhythm.
Intro/verse is very cool to play. This song has "lovely" lyrics too.
:
# intro # X 4 # intro2 #
E----------------------------| E----------------------------|
B----------------------------| B----------------------------|
G---9-9-10-9--7-9-10-9-7-9---| G---9-9-10-9--7-9-10-9-7-9---|
D---9-9-10-9--7-9-10-9-7-9---| D---7-7--8-7--5-7--8-7-5-7---|
A---7-7--8-7--5-7--8-7-5-7---| A----------------------------|
E----------------------------| E----------------------------|
:
Play both intros a few times again on a different order.
:
# after intro # OR # after intro2 #
E-------| E-------|
B----*--| B----*--|
G---9---| *=play 18X G---9---|
D---9---| m=palm-muted D---7---|
A---7---| A-------|
E---m---| E---m---|
:
# pre-chorus # X 3 (brackets only last time) # chorus # X 4
E-------------------------------------------| E---------------|
B-------------------------------------------| B---------------|
G---9-9-9-8-7-7-7-8--(9-9-9-9-9-9-9-9-9-9)--| G---2---5-------|
D---9-9-9-8-7-7-7-8--(9-9-9-9-9-9-9-9-9-9)--| then > D---2---5---2---|
A---7-7-7-6-5-5-5-6--(7-7-7-7-7-7-7-7-7-7)--| A---0---3---2---|
E-------------------------------------------| E-----------0---|
: \m/ \m/
:
# end-chorus #
E---------------------------------|
B---------------------------------|
G---9-9-8-8-7-7-6-6-5-5-4-4-3-3---|
D---9-9-8-8-7-7-6-6-5-5-4-4-3-3---|
A---7-7-6-6-5-5-4-4-3-3-2-2-1-1---|
E---------------------------------|
: \______left-hand muting___/ (of course right-hand muting if you´re
: lefthanded)
:
Play both intros a few times again on a different order (after four times,
# after intro # and # after intro2 # will join).
Play pre-chorus and chorus.
:
# bridge # X 6
E-----------------------------------------|
B-----------------------------------------|
G---7-7/9--9-9-9/12--12-12/14--14-14-14---|
D---7-7/9--9-9-9/12--12-12/14--14-14-14---|
A---5-5/7--7-7-7/10--10-10/12--12-12-12---|
E-----------------------------------------|
:
Play pre-chorus, chorus X2 and intro once. Did you burn it up?
Tabbed by Jussi Heinonen 25.02.1997. Thanks to Brian Sayles.

And tune your guitar, that helps.

Nounou
02-19-2006, 08:39 AM
This song is just so great to play :)

Llamas
02-19-2006, 03:12 PM
I love playing the songs off ignition... none of them are hard to play, but every single one just has so much energy! I get a kick out of playing them. :)

Nirushika6789
02-19-2006, 03:15 PM
http://www.ultimate-guitar.com/tabs/o/offspring/burn_it_up_tab.htm

When I play it I don't use powerchords...for me when you use powerchords it sounds too 'chunky'...when you listen to the song IMO it sounds like single notes. So I use the tab above^

And it sounds perfect to me...

noodle654
02-19-2006, 04:06 PM
http://www.sci.fi/~k129875/offsprng/ignition/BURNITUP.txt

BURN IT UP by The Offspring. Album: The Offspring - Ignition (1992)
Otherwise this could be easy, but it`s so hard to find the right rhythm.
Intro/verse is very cool to play. This song has "lovely" lyrics too.
:
# intro # X 4 # intro2 #
E----------------------------| E----------------------------|
B----------------------------| B----------------------------|
G---9-9-10-9--7-9-10-9-7-9---| G---9-9-10-9--7-9-10-9-7-9---|
D---9-9-10-9--7-9-10-9-7-9---| D---7-7--8-7--5-7--8-7-5-7---|
A---7-7--8-7--5-7--8-7-5-7---| A----------------------------|
E----------------------------| E----------------------------|
:
Play both intros a few times again on a different order.
:
# after intro # OR # after intro2 #
E-------| E-------|
B----*--| B----*--|
G---9---| *=play 18X G---9---|
D---9---| m=palm-muted D---7---|
A---7---| A-------|
E---m---| E---m---|
:
# pre-chorus # X 3 (brackets only last time) # chorus # X 4
E-------------------------------------------| E---------------|
B-------------------------------------------| B---------------|
G---9-9-9-8-7-7-7-8--(9-9-9-9-9-9-9-9-9-9)--| G---2---5-------|
D---9-9-9-8-7-7-7-8--(9-9-9-9-9-9-9-9-9-9)--| then > D---2---5---2---|
A---7-7-7-6-5-5-5-6--(7-7-7-7-7-7-7-7-7-7)--| A---0---3---2---|
E-------------------------------------------| E-----------0---|
: \m/ \m/
:
# end-chorus #
E---------------------------------|
B---------------------------------|
G---9-9-8-8-7-7-6-6-5-5-4-4-3-3---|
D---9-9-8-8-7-7-6-6-5-5-4-4-3-3---|
A---7-7-6-6-5-5-4-4-3-3-2-2-1-1---|
E---------------------------------|
: \______left-hand muting___/ (of course right-hand muting if you´re
: lefthanded)
:
Play both intros a few times again on a different order (after four times,
# after intro # and # after intro2 # will join).
Play pre-chorus and chorus.
:
# bridge # X 6
E-----------------------------------------|
B-----------------------------------------|
G---7-7/9--9-9-9/12--12-12/14--14-14-14---|
D---7-7/9--9-9-9/12--12-12/14--14-14-14---|
A---5-5/7--7-7-7/10--10-10/12--12-12-12---|
E-----------------------------------------|
:
Play pre-chorus, chorus X2 and intro once. Did you burn it up?
Tabbed by Jussi Heinonen 25.02.1997. Thanks to Brian Sayles.

And tune your guitar, that helps.

you are god

one_fine_day
03-20-2006, 02:02 PM
oh my fucking god, there are tabs for anything anywhere on the internet. dont always come to us on the forums for tabs.

Corpse
03-20-2006, 02:07 PM
The dude just asked for tab, don't go all like that, alot of sites i used to get tabs have closed down now anyway.

pretty_fly_white_guy858
03-20-2006, 07:05 PM
oh my fucking god, there are tabs for anything anywhere on the internet. dont always come to us on the forums for tabs.
Oh my fucking god. There arent all accurate tabs on the internet dumbfuck. And dont bump threads that dont need to be bumped.