PDA

View Full Version : Tabs



Bryan_AVA
03-12-2006, 12:06 PM
Ok, there might be another thread about this, but I don't care. Post any offspring tabs you have here, whether its for Guitar/Bass/Drums. Please do NOT post any replies to this post unless its a tab.

Lithuanian Offspring
03-12-2006, 12:26 PM
Ok, there might be another thread about this, but I don't care. Post any offspring tabs you have here, whether its for Guitar/Bass/Drums. Please do NOT post any replies to this post unless its a tab.
Tab Tab Tab Tab Tab Tab Tab Tab Tab Tab Tab Tab Tab Tab Tab Tab Tab Tab Tab Tab Tab Tab Tab Tab Tab Tab Tab Tab Tab Tab Tab Tab Tab Tab Tab Tab Tab Tab Tab Tab Tab Tab Tab Tab Tab Tab Tab Tab Tab Tab Tab Tab Tab Tab Tab Tab Tab Tab Tab Tab Tab Tab Tab Tab Tab Tab Tab Tab Tab Tab Tab Tab Tab Tab Tab Tab Tab Tab Tab Tab Tab Tab Tab Tab Tab Tab Tab Tab Tab Tab Tab Tab Tab Tab Tab Tab Tab Tab Tab Tab Tab Tab Tab Tab Tab Tab Tab Tab Tab Tab Tab Tab Tab Tab Tab Tab Tab Tab Tab Tab Tab Tab Tab Tab Tab Tab Tab Tab Tab Tab Tab Tab Tab Tab Tab Tab Tab Tab Tab Tab Tab Tab Tab Tab Tab Tab Tab Tab Tab Tab Tab Tab Tab Tab Tab Tab Tab Tab Tab Tab Tab Tab Tab Tab Tab Tab Tab Tab Tab Tab Tab Tab Tab Tab Tab Tab Tab Tab Tab Tab Tab Tab Tab Tab

Jojan
03-12-2006, 12:33 PM
Wht post them? They're on every tab site on that thing... ehm... what's it called?





THE INTERNET!

aka The All Mighty Internet Of The World

Here's a good site with most tabs from S/T to Americana on guitar and bass: www.jiihootabs.cjb.net (http://www.sci.fi/~k129875/)

And here's a tab:

Intro
G |---------------------|
D |---------------------|
A |-4--3--1---6--4--3---|
E |---------------------|

G |--------------------------------------|
D |--------------------------------------| x3
A |------------------4--3--1---6--4--3---|
E |-1-1-1-14--4-4-4----------------------|

After third;
G |-------------------------------------------------|
D |-------------------------------------------------| x2
A |------6-6-66------6-6-66-------------------------|
E |-4-4-4-------4-4-4-------4-4-41-1-11-4-4-41-1-11-|

Small bridge
G |--------|
D |--------|
A |-888888-|
E |--------|

Chours;
G |--------------------------------------|
D |-6------------------------------------| x2
A |---8-8-86--8-8-8-6-6666---------------|
E |------------------------6-6666-4-4444-|

G |--------------------------------|
D |--------------------------------|
A |-4-4-4-4-4-4---46-6-6-6-6-6---6-|
E |-------------4-------------6----|

G |-------------------------------|
D |-------------------------------| x2
A |----------------4-4-4-43-3-3-3-|
E |-1-1-1-14-4-4-4----------------|

G |--------------------------------------|
D |--------------------------------------| x4
A |------------------4--3--1---6--4--3---|
E |-1-1-1-14--4-4-4----------------------|

G |--------|
D |--------|
A |-888888-|
E |--------|

G |--------------------------------------|
D |-6------------------------------------| x2
A |---8-8-86--8-8-8-6-6666---------------|
E |------------------------6-6666-4-4444-|

G |--------------------------------|
D |--------------------------------|
A |-4-4-4-4-4-4---46-6-6-6-6-6---6-|
E |-------------4-------------6----|

Here's a fun part

G |---------------------|
D |------------6--6-6-6-| x2
A |-68886888688---------|
E |---------------------|

G |--------------------------------| \
D |--------------------------------| |
A |-4-4-4-4-4-4---46-6-6-6-6-6---6-| | x 4
E |-------------4-------------6----| |
|
G |---------------------| |
D |------------6--6-6-6-| x2 |
A |-68886888688---------| |
E |---------------------| /

Then a brusk end.

G |-------------------------------------|
D |-------------------------------------|
A |-4-4-4-4-4-4---46-6-6-6-6-6---6--8-8-|
E |-------------4-------------6---------|

Schhh!!!

G |--------------------------------------|
D |-6------------------------------------| x3
A |---8-8-86--8-8-8-6-6666---------------|
E |------------------------6-6666-4-4444-|

The end...

G |---------------------------------------|
D |-6----------------------6--6-----------|
A |---8-8-86--8-8-8-6-6666--8--8--r-------|
E |-------------------------------1-------|Guess what song it is!

Teemu
03-12-2006, 01:50 PM
it is mission from god, isn't it? at least it seems to me, for the intro and the verse...

Jojan
03-13-2006, 08:24 AM
It sure is. And I tabbed all by my self!

Little_Miss_1565
03-13-2006, 08:48 AM
http://www.offspring.com/forums/search.php?

Why are you so afraid of the search button? You post more repeat topics than anyone else here.

Teemu
03-13-2006, 09:37 AM
It sure is. And I tabbed all by my self!


great man :D

Teemu
03-13-2006, 09:38 AM
http://www.offspring.com/forums/search.php?

Why are you so afraid of the search button? You post more repeat topics than anyone else here.

maybe the search button can be scary sometimes... maybe it can bite me :confused: :confused: ;)