PDA

View Full Version : Punk-O-Matic



0r4ng3
04-29-2006, 10:56 AM
I'm suprised I didn't find a thread about this. Anyway, here's an interesting "game" I found, where you make your own songs.

Here's one I'm working on. Copy and paste this into the load screen.


----3---3---3---2---2---9-880---0--------------------------------
--------------------0---0---0---0---2---2---c--94---4------------
----------------------------------------------9-1---1---2-4-2-6-a
---a-3-a-9--------------------------------------------------I segmented it to prevent screen stretching.

Edit: Ha, I forgot the link.

http://www.flashplayer.com/games/punk-o-matic.html

T-6005
04-29-2006, 11:02 AM
That's odd - I'm certain I remember a thread concerning this.

Preocupado
04-29-2006, 11:03 AM
is taking forever to load...... off i go.

0r4ng3
04-29-2006, 11:03 AM
That's odd - I'm certain I remember a thread concerning this.Yeah, so do I. When I searched "Punk o Matic", I left out the dashes. Maybe that's why I didn't get anything.

Edit: The finished product.

----3---3---3---2---2---99880---0---1---1---3---3---3---3---9-----
-------------------0---0---0---0---2---2---c--94---4---9---9---a---a---5-5
-5-5-c------------------------------9-1---1---2-4-2-6-a---a---a-9-0---1-6
-a---a-4-8-4-8-4-a------------------------

Tijs
04-29-2006, 11:32 AM
Yeah I remember this program. Let me see if I can find some song I made.

Anyway, here's the original thread:
http://www.offspring.com/forums/showthread.php?t=2873

I personally really like this one:

----2---2---2---5-5-6-882---2---0---0---0---0---0---0---0---5-5-6-8888881---1---9----3-3-3-3-5-5-5-5-8---4---4---4---2---2---2---2---2-2-7-7-7-7-8---4---4---7-7-7-a---b------a---a---a-----------a---a---0-0-0---0-0-0---3-3-3-3-4-4-a-----------8-7-8-7-8----
------6-1---1---1---1---2---2---9---6-1---1---1---1---1---2---2---3---3---3---3---9----------5-5-5-5-5-5-5-5-7-7-7-7-7-7-7-7-5-5-5-5-5-5-5-7-7-7-7-7-7-7-7-7-7-7-7-7-7-c--7-8-7-8-7-8-7-8-3-3-3-3-4-4-4-4-a-----7-8-7-8-7-8-3-3-3-3-4-4-4-4-4-5-5-5-7-8-7-8----

0r4ng3
04-29-2006, 11:44 AM
I like how (relatively) calm that first one is.

Also, in the second, I never realized how awesome rhythm guitar 7 was, until I heard it in that song.

0r4ng3
04-29-2006, 03:25 PM
Here's a slightly slower song I've been working on. I think it's finished.


----3---3---3-6-3---3---3---3-889-6-2---2-6-3---3---2---2-683---3-
--6-1---1---9------7-7-7-7-7-7-7-7-4---4---4---4---c---c-b-----a---a---a-
--a---0---0---b-0---0--6b----------a---0---0-6-3-8-3-8-a---a---a---7-7-7-
4-a-----9-a---a---2-6-2-8-9-2-4-7-4--------

Corpse
04-29-2006, 03:42 PM
Here's a really rubbish one.


3---3---3---3---900---9-------------------------------------
---------------------------------4---9-----2---8----6-b----c---
---------------------------------------------------0---0---0-----a---
-a--3-4-0------------------------------------------------------

0r4ng3
04-29-2006, 11:45 PM
Here's another one I just finished. It's much more varied than the past few.


9-----880---0---0---0---1---1---3---3---2---2-6-9-0---0---1---1---
1---1---3---3---8890---0---0---0---0---0---2---2---a---a---5-5-5-5
-4-4---4---8---8---8---8--67-7-7-7-4-ba-----9---------8-8-8-6-7-7-
7-7-3-4-3-4-5-2-5-2---a---a-9-a-------1---1-

Jebus
04-29-2006, 11:54 PM
how the hell does everything sound good no matter what you do?

Harnum
04-30-2006, 07:43 AM
yah! i've been waiting for a cool thread like this to pop up. i play this game a lot... here's my code

9-----6-3---3---777777773-6-3---3---9-----6-3---9---3---3---777777779999-------------c---5-5-5-5-5-5-0---0---c---5-5-5-5-4---4---4---c---5-5-5-5-0---0---cccc-------------a-------1---1---4-4-4-4-2-2-1---1---a-----------a-9-1---1---4-4-4-4-aaaa-------------

Corpse
04-30-2006, 09:10 AM
3---3---3---3---900---9-----------99999-------------------
1---1---1---2---2------------------4---9-----2---8----6-b----ccccc
---2---2---2---2---2---2---2---1---1---7-8-5-b----0---0---0-----a-
---a--3-4-0---aaaaa-----------1---1---1---1---1---0---0---0--a---

Here's my final piece, crap but punk.

Tijs
04-30-2006, 09:17 AM
how the hell does everything sound good no matter what you do?
Because it's punk!

0r4ng3
04-30-2006, 10:28 AM
Oh man, I'm addicted to this game. Not actually playing it, but I've been playing the guitar parts on my guitar since yesterday.

Edit: I particularly like lead guitar 8.

0r4ng3
04-30-2006, 02:20 PM
Behold! The least punk song that Punk-O-Matic can produce!

3---3---3---3--73---3--73---3---4-4-4-6-3---3---3-
--3-673---3---3---3--73---3-6-9-9--------6-a---a---a---a-
--2---2---2---2---8---8---8---8---c-b---6-a---a---c-----6
-c-b--8-8-8-8-2-3-2-3-a-----6-1---1---7-7-7-6-a-------7-
6-1-2-0---0---5-4-5-4-8-8-8-8------Am I the only one that's still playing this?

Edit: Drums make such a difference.
0---0---1---1--80---0--71---1---5858586-0---0---0---0-671---1---
0---0--80---0-689-9--------6-a---a---a---a---2---2---2---2---8---8---8--
-8---c-b---6-a---a---c-----6-c-b--8-8-8-8-2-3-2-3-a-----6-1---1---7-7-7
-6-a-------7-6-1-2-0---0---5-4-5-4-8-8-8-8------

kamikaze
05-01-2006, 01:18 PM
How do you load it? I really want to hear it :(

Corpse
05-01-2006, 01:29 PM
Just copy it, open up the game, go to load, and then you will see the box at the bottom, it's obvious.

kamikaze
05-01-2006, 01:32 PM
Yeah, I tried that and the guy called me an asshole. :(

0r4ng3
06-08-2006, 07:50 PM
I got bored, so I started playing this again. Here's a song I made up:


6-0---0---0---0---0---0---70---0-880---0---1---1-671---1---0---0-
--671---1---1---889-------c---2---2---0---0----0---0---0---0---2---2---0
---0---a---a---6-0---0---0---6-b-------a---a---a---a---a-9--1---1---5-2-
5-6-0---0---0---0---7-7-7-6-9-1---1---1---9---