PDA

View Full Version : Pass me by tabs



Weasel
10-19-2006, 06:33 AM
Does anyone have they lyrics to the 25 secs song???

I appreciate your help!

greetings!

randman21
10-19-2006, 06:42 AM
Errr, that song has no lyrics (that the public knows). Plus, this thread is in the wrong section.

offspring dude
10-19-2006, 08:35 AM
Does anyone have they lyrics to the 25 secs song???

I appreciate your help!

greetings!

Wrong forums but still

i worked this out:

--------------------------------------
--------------------------------------
-------------------------------------- X2
--------------------------------------
--4---------------7----6----7---------
---------4-----------------------------

----------------------------------------
----------------------------------------
----------------------------------------
--0---------------7-----6---7-----------
----------0-----------------------------

----------------------------------------
----------------------------------------
----------------------------------------
----------------------------------------
--2-----------------6----4----6---------
----------2------------------------------

then repeat first and second bit and then:

-----------------------------------------
----------------------------------------
----------------------------------------
------------------2------4--4-----6/1---
--2--------------------------------------
--------2---------------------------------

its really not that hard to play/ work out

Weasel
10-19-2006, 03:03 PM
thank you man :D

i can play the guitar very well but i still not that good in tabbing :((
that was what i was searching for!!! thank you very much!!! :D