PDA

View Full Version : Mission From God guitar tabs



dirtymagic92
12-24-2006, 01:02 AM
blablablabla

Marco
12-24-2006, 01:11 AM
INTRO:
e|-----------------------------|
B|-----------------------------|
G|-----------------------------|
D|-3-3-3-3-3-3-3-3-3-3-3-3-3-3-|
A|-3-3-3-3-3-3-3-3-3-3-3-3-3-3-|
E|-1-1-1-1-1-1-1-1-1-1-1-1-1-1-|
PM . . . . . . . . . . . .

VERSE:
Part 1:
e|----------------------|
B|----------------------|
G|----------------------|
D|-3-3-3-3-3--6-6-6-6-6-|
A|-3-3-3-3-3--6-6-6-6-6-|
E|-1-1-1-1-1--4-4-4-4-4-|
. . . . . . . .
Part 2:
e|-------------|
B|-------------|
G|-6-5-3-8-6-5-|
D|-6-5-3-8-6-5-|
A|-4-3-1-6-4-3-|
E|-------------|

PRE-CHORUS:
e|---------------------------------|
B|---------------------------------|
G|-------8-8-8-8-8-------8-8-8-8-8-|
D|-8-8-8-8-8-8-8-8-8-8-8-8-8-8-8-8-|
A|-8-8-8-6-6-6-6-6-8-8-8-6-6-6-6-6-|
E|-6-6-6-----------6-6-6-----------|

e|---------------------------------|
B|---------------------------------|
G|---------------------------------|
D|-6-6-6-3-3-3-3-3-6-6-6-3-3-3-3-3-|
A|-6-6-6-3-3-3-3-3-6-6-6-3-3-3-3-3-|
E|-4-4-4-1-1-1-1-1-4-4-4-1-1-1-1-1-|

CHORUS:
The x's are optional. You might want to play just D#5's.
e|-------------------------------------------------|
B|-------------------------------------------------|
G|-13-10-10-10-10-8-10-10-10-8-x-x-x-x-x-----------|
D|-13-10-10-10-10-8-10-10-10-8-x-x-x-x-x-8-8-8-8-8-|
A|-11-8--8--8--8--6-8--8--8--6-x-x-x-x-x-8-8-8-8-8-|
E|---------------------------------------6-6-6-6-6-|

INTERLUDE:
Strike each chord a few times
e|---------|
B|---------|
G|-----6-5-|
D|-3-6-6-5-|
A|-3-6-4-3-|
E|-1-4-----|

VERSE

PRE-CHORUS

CHORUS

BRIDGE:
Part 1
e|----------------------------------|
B|----------------------------------|
G|-8/10-10-8/10-10-8/10-10-13-10-10-|
D|-8/10-10-8/10-10-8/10-10-13-10-10-|
A|-6/8--8--6/8--8--6/8--8--11-8--8--|
E|----------------------------------|

e|-------------------------------------------------|
B|-13----------------------------------------------|
G|-12b-10------6-6-6-6-6-6-6-6---8-8-8-8-8-8-8-8---|
D|--------12-8-6-6-6-6-6-6-6-6-8-8-8-8-8-8-8-8-8-8-|
A|-----------8-4-4-4-4-4-4-4-4-8-6-6-6-6-6-6-6-6-8-|
E|-----------6-----------------6-----------------6-|

End Bridge on:
e|-------|
B|-------|
G|-10-10-|
D|-10-10-|
A|-8--8--|
E|-------|

CHORUS

ENDING:
CHORUS:
e|--------------------------|
B|--------------------------|
G|-13-10-10-10-10-13-10-----|
D|-13-10-10-10-10-13-10--\3-|
A|-11-8--8--8--8--11-8---\3-|
E|-----------------------\1-|

Marco
12-24-2006, 01:29 AM
Thanks man, where'd you find that?
I just used black magic...but....*whispering*please don't tell this secret around......

Grabbal
12-24-2006, 05:03 AM
http://ultimate-guitar.com

German Andres
12-25-2006, 01:05 PM
http://ultimate-guitar.com


Thanks, man. Lots of tabs, and most of them are accurate...