PDA

View Full Version : Guess the tab



Killb0y
12-25-2004, 11:14 PM
Well since there's a "Guess the lyric" thread than I thought about people who play the guitar and now you can guess tabs :D. Just play it and you'll know what is it. Well let's start with an easy one:

E-|-----------------------------|
B-|-----------------------------|
G-|-------------9-9--9----------|
D-|-6-6-4-6-6-4-9-9--9-9-9-11-9-|
A-|-6-6-4-6-6-4-7-7--7-9-9-11-9-|
E-|-4-4-2-4-4-2--------7-7-9--7-|

Jojan
12-26-2004, 04:34 AM
Da Hui - but you tabed it a bit wrong.

Another easy one...

G:---------------------------| x6
D:---------7-----------------|
A:----0----------------------|
E:-3------------3h5-5--------|

G:---------------------------|
D:-------5----------2--------|
A:---------------------------|
E:-1-3----------0------------|

Zee
12-26-2004, 05:53 AM
http://www.offspring.com/forums/showthread.php?t=886

Had to do that.

Offspring Pyro
12-26-2004, 11:40 AM
Da Hui - but you tabed it a bit wrong.

Another easy one...

G:---------------------------| x6
D:---------7-----------------|
A:----0----------------------|
E:-3------------3h5-5--------|

G:---------------------------|
D:-------5----------2--------|
A:---------------------------|
E:-1-3----------0------------|

That is the bass tab for Bad Habit

Noodles is gay
12-26-2004, 11:51 AM
intro/extro:x2(0:11, after drum intro)
G|------------------------------|
D|------------------------------|
A|-------------------------------|
D|--55-555-5-5-5555-5-5-5555\--|

pre-verse:x2
G|---------------------------------------------------|
D|---------------------------------------------------|
A|--------------0--1-0------------------0--1-0------|
D|--55-555-555--------5-3-11-111-1-33--------5-3--|

verse:x2
G|--------------------------------------------|
D|--------------------------------------------|
A|--------------------------------------------|
D|--55-5-55-5-55-5-55\11-1-11-1/33-3-333/--|


Come on then people. :D

Killb0y
12-26-2004, 03:34 PM
I dont play the bass but is it Killboy Powerhead?

|-------10-10-9-9------9-9----------------------------------------|
|-12-12----------10-10----10-10-11b12r11b12---------------------|
|------------------------------------------------------------------| X 2
|------------------------------------------------------------------|
|------------------------------------------------------------------|
|------------------------------------------------------------------|


|-------14-14-12-12-------12-12----------------------|
|-12-12-------------14-14--------14-14-14b15r14b15--|
|------------------------------------------------------|
|------------------------------------------------------|
|------------------------------------------------------|
|------------------------------------------------------|

|-------10-10-9-9------9-9----------------------------------------|
|-12-12----------10-10----10-10-11b12r11b12---------------------|
|------------------------------------------------------------------|
|------------------------------------------------------------------|
|------------------------------------------------------------------|
|------------------------------------------------------------------|

If someone wants I can put in the rest of it

Oh yeah, what did you mean when you wrote that my da hui tab is wrong?

Noodles is gay
12-26-2004, 03:58 PM
I dont play the bass but is it Killboy Powerhead?

Nope it was MOTA, start.

Put more of yours, i have an idea but not sure. Doesn't help that i only play bass.

Jojan
12-26-2004, 04:22 PM
Mota isn't tuned to D.

MOTA:
# intro #
G----------------------------------------------|
D----------------------------------------------|
A----------------------------------------------|
E---3-3--3-3-3--3--3--3-3-3-3--3--3--3-3-3-3---|

# intro2 #
G----------------------------------------------|
D----------------------------------------------|
A----------------------------/10-10-10101010---|
E---3-3--3-3-3--3--3--3-3-3-3------------------|

# main # X2 *=play 6X
G---------------------------*-----------------------|
D--------------------------1------------------------|
A----*----------0--1-0-----------------0--1-0-------|
E---3-------3-3--------3-1---------1-1--------3-1---|

# verse # X2 *=play 6X
G--------------------*---------------|
D-------------------1----------------|
A----*-------*---------------*-------| > Then play mainX2.
E---3-------3---------------1--------|

# chorus # *=play 6X
G-|--------------3X-------------|---------------|
D-|----------*------------------|------------*--|
A-|--*------3--------*-------*--|----*------3---|
E-|-1---------------3-------3---|---1-----------|

Then play intro2, mainX2, verseX2 and mainX2.

# chorus2 # *=play 6X
G-|--------------3X-------------|----------------------------*--|
D-|----------*------------------|------------*-------*------3---|
A-|--*------3--------*-------*--|----*------3-------1-----------|
E-|-1---------------3-------3---|---1---------------------------|

Killb0y
12-27-2004, 12:03 AM
Wow I have no idea what's this about. Bass just isn't my thing

Could anyone guess mine already. Oh and could you anser me why do you think my da hui tab is wrong Jojan

Noodles is gay
12-27-2004, 09:06 AM
Cheers Jojan, I must've been playing it wrong!

Offspring Pyro
12-27-2004, 10:05 AM
I dont play the bass but is it Killboy Powerhead?

|-------10-10-9-9------9-9----------------------------------------|
|-12-12----------10-10----10-10-11b12r11b12---------------------|
|------------------------------------------------------------------| X 2
|------------------------------------------------------------------|
|------------------------------------------------------------------|
|------------------------------------------------------------------|


|-------14-14-12-12-------12-12----------------------|
|-12-12-------------14-14--------14-14-14b15r14b15--|
|------------------------------------------------------|
|------------------------------------------------------|
|------------------------------------------------------|
|------------------------------------------------------|

|-------10-10-9-9------9-9----------------------------------------|
|-12-12----------10-10----10-10-11b12r11b12---------------------|
|------------------------------------------------------------------|
|------------------------------------------------------------------|
|------------------------------------------------------------------|
|------------------------------------------------------------------|

If someone wants I can put in the rest of it

Oh yeah, what did you mean when you wrote that my da hui tab is wrong?




That is the short solo to LAPD

Killb0y
12-27-2004, 11:40 AM
Correct but when you answer could you please put a tab of your own.

phoenix
12-27-2004, 03:08 PM
this is a weird thread..................(compared 2 guess the lyric)
just is
ill shut up

Jojan
12-27-2004, 04:07 PM
Killb0y: No wrong, but you haven't put all the chors in. But that's OK.

Noodles_is_gay: You're welcome.

E----------------------------------------------------------------------------|
B----------------------------------------------------------------------------|
G-----7-7--12-12-11-9---7-7--12-12-14-9---7-7--12-12-11-9---7-7--12-12-14-9--|
D----------12-12-11-9---7-7--12-12-14-9---7-7--12-12-11-9---7-7--12-12-14-9--|
A----------------------------------------------------------------------------|
E-----------------------m-m---------------m-m---------------m-m--------------|

Weasel
12-27-2004, 04:29 PM
Killb0y: No wrong, but you haven't put all the chors in. But that's OK.

Noodles_is_gay: You're welcome.

E----------------------------------------------------------------------------|
B----------------------------------------------------------------------------|
G-----7-7--12-12-11-9---7-7--12-12-14-9---7-7--12-12-11-9---7-7--12-12-14-9--|
D----------12-12-11-9---7-7--12-12-14-9---7-7--12-12-11-9---7-7--12-12-14-9--|
A----------------------------------------------------------------------------|
E-----------------------m-m---------------m-m---------------m-m--------------|

Gotta Get Away ^^

Killb0y
12-27-2004, 04:34 PM
Well actually I think the first two sounds (-7-7-) are harmonics and the other stuff... well looks weird to me and kinda not Offspring like.

Don't forget to put in a tab of your own when you guess

Killb0y
01-09-2005, 02:59 AM
Guess:

E------------------------------------------------------------|
B------------------------------------------------------------|
G--9-9-9--7-7-7---------4-5-4------------5-5-5--7-7-7------|
D--9-9-9--7-7-7--7-7-7--4-5-4-5--2-2-2--5-5-5--7-7-7-7-9--|
A--7-7-7--5-5-5--7-7-7--2-3-2-5--2-2-2--3-3-3--5-5-5-7-9--|
E-----------------5-5-5--------3--0-0-0----------------5-7--|

Jojan
01-09-2005, 04:42 AM
Out On Patrol

E-------------------------------------|
B-------------------------------------|
G------------5-7-7------------5-------|
D---7-7-7-7--5-7-7---7-7-7-7--5-5-5---|
A---7-7-7-7--3-5-5---7-7-7-7--3-5-5---|
E---5-5-5-5----------5-5-5-5----3-3---|

Killb0y
01-09-2005, 06:49 AM
Oh man this tells me something but can't tell what is it. Aaaaaaaa it's cracking my mind. A little hint?

pretty_fly_white_guy858
01-09-2005, 02:55 PM
Well since there's a "Guess the lyric" thread than I thought about people who play the guitar and now you can guess tabs :D. Just play it and you'll know what is it. Well let's start with an easy one:

E-|-----------------------------|
B-|-----------------------------|
G-|-------------9-9--9----------|
D-|-6-6-4-6-6-4-9-9--9-9-9-11-9-|
A-|-6-6-4-6-6-4-7-7--7-9-9-11-9-|
E-|-4-4-2-4-4-2--------7-7-9--7-|
Come Out Swinging?

pretty_fly_white_guy858
01-09-2005, 02:59 PM
Ok this is an easy one. Its just the intro but its easy to guess

x4 x2
e|-5-55-3-33-666-5-55-|---------------------|
B|-3-33-3-33-333-3-33-|---------------------|
G|--------------------|---------------------|
D|--------------------|-7-77-5-55-888-7-77--|
A|--------------------|-5-55-3-33-666-5-55--|
E|--------------------|---------------------|
x2
e|----------------------------------|----------------------|
B|----------------------------------|----------------------|
G|----------------------------------|----------------------|
D|----------------------------------|-7-77-5-55-8-88-7-77--|
A|-5-5555555-8-8888888-777777777777-|-5-55-3-33-6-66-5-55--|
E|-3-3333333-6-6666666-555555555555-|----------------------|

samr
01-10-2005, 07:15 PM
E-|-------------------------------------------|
B-|-------------------------------------------|
G-|-22222222-55555555- ----------7777-5----|
D-|-22222222-55555555- 55555555-7777-5-5--| Repeat (its a verse)
A-|-00000000-33333333- 55555555-5555-3-5--|
E-|----------------------33333333---------3--|

Offspring Pyro
01-10-2005, 07:20 PM
kind of sounds like meaning of life....probably wrong tho.

samr
01-10-2005, 07:22 PM
kind of sounds like meaning of life....probably wrong tho.

nope, not MOL.

its on ignition

Killb0y
01-10-2005, 07:23 PM
Ok this is an easy one. Its just the intro but its easy to guess

x4 x2
e|-5-55-3-33-666-5-55-|---------------------|
B|-3-33-3-33-333-3-33-|---------------------|
G|--------------------|---------------------|
D|--------------------|-7-77-5-55-888-7-77--|
A|--------------------|-5-55-3-33-666-5-55--|
E|--------------------|---------------------|
x2
e|----------------------------------|----------------------|
B|----------------------------------|----------------------|
G|----------------------------------|----------------------|
D|----------------------------------|-7-77-5-55-8-88-7-77--|
A|-5-5555555-8-8888888-777777777777-|-5-55-3-33-6-66-5-55--|
E|-3-3333333-6-6666666-555555555555-|----------------------|

Beheaded


E-|-------------------------------------------|
B-|-------------------------------------------|
G-|-22222222-55555555- ----------7777-5----|
D-|-22222222-55555555- 55555555-7777-5-5--| Repeat (its a verse)
A-|-00000000-33333333- 55555555-5555-3-5--|
E-|----------------------33333333---------3--|

We are one


Come Out Swinging?

Nope, it's da hui

|-----------------------------------------------------------------------|
|-----------------------------------------------------------------------|
|-----9-9------7-7-7------9-9--------------9-9------7-7-12-14-9-9-9-9-|
|-2-2-9-9-5-5-7-7-7--2-2-9-9-5-x-x-x--2-2-9-9-5-5-7-7-12-14-9-9-9-9-|
|-2-2-7-7-5-5-5-5-5--2-2-7-7-5-x-x-x--2-2-7-7-5-5-5-5-10-12-7-7-7-7-|
|-0-0-----3-3---------0-0-----3-x-x-x--0-0-----3-3---------------------|

Jojan could you please tell me already what's that one you posted earlier

Offspring Pyro
01-10-2005, 07:25 PM
^^^^^^^^^^ oh i no that one!! its total immortal! orginally done by afi.

Killb0y
01-10-2005, 07:27 PM
^^^^^^^^^^ oh i no that one!! its total immortal! orginally done by afi.

Correct. Post some tabs you know

Offspring Pyro
01-10-2005, 07:31 PM
|-----------------------------------------------------------
|-----------------------------------------------------------
|-9:----12-11-12-9---12-11-12-7:----------------------------
|-9:----12-11-12-9---12-11-12-7:----5-5-5-5-5-5-7-7-7-7-7-7-
|-7:----10--9-10-7---10--9-10-5:----5-5-5-5-5-5-7-7-7-7-7-7-
|----------------------------------------3-3-3-3-3-3-5-5-5-5-5-5-

Killb0y
01-10-2005, 07:37 PM
Is this what I think it is from CO1?

Offspring Pyro
01-10-2005, 07:41 PM
if your thinking of Huck it, then yea.

samr
01-10-2005, 07:47 PM
|-----------------------------------|
|-7--8--7-7-x-x-x-x-----------------|
|-7--7--7-7-x-x-x-x-----------------|
|-7--7--7-7-x-x-x-x-3--3--5--5--5-5-|
|-5--5--5-5-x-x-x-x-3--3--5--5--5-5-|
|-------------------1--1--3--3--3-3-|

Killb0y
01-10-2005, 08:07 PM
if your thinking of Huck it, then yea.

Well I think it's kinda like this:

|-----------------------------------------------------
|-----------------------------------------------------
|------------------------7:----------------------------
|-2:----5-4-5-2---5-4-5-7:----5-5-5-5-5-5-7-7-7-7-7-7-
|-2:----5-4-5-2---5-4-5-5:----5-5-5-5-5-5-7-7-7-7-7-7-
|-0:----3-2-3-0---3-2-3-------3-3-3-3-3-3-5-5-5-5-5-5-





|-----------------------------------|
|-7--8--7-7-x-x-x-x-----------------|
|-7--7--7-7-x-x-x-x-----------------|
|-7--7--7-7-x-x-x-x-3--3--5--5--5-5-|
|-5--5--5-5-x-x-x-x-3--3--5--5--5-5-|
|-------------------1--1--3--3--3-3-|


It's too short, a hint maybe?

samr
01-10-2005, 08:08 PM
its on ixnay

Killb0y
01-10-2005, 08:15 PM
Oh, I choose :D. Never played it

Guess this:
E---------------------------------------------------------|
B---------------------------------------------------------|
G--10--10-10-10-10-10-10-10-10-10-10---6---6--8---8---|
D--10--10-10-10-10-10-10-10-10-10-10---6-6-6--8-8-8---|
A---8---8--8--8--8--8--8--8--8--8--8-----4-6-4--6-8-6---|
E--------------------------------------------4------6-----|

Killb0y
01-12-2005, 08:37 AM
can't guess it?

pretty_fly_white_guy858
01-12-2005, 11:24 AM
# start-chord # # intro # X 2 /=slide
E-------| E---------------------------------------------------|
B-------| B---------------------------------------------------|
G---9---| G---9-9-7-9-9-10-13--10-9-9-7-9-9--11-11-11-11-11/--|
D---9---| D---9-9-7-9-9-10-13--10-9-9-7-9-9---9--9--9--9--9/--|
A---7---| A---7-7-5-7-7--8-11---8-7-7-5-7-7-------------------|
E-------| E---------------------------------------------------|
This is just the intro its easy to guess

Killb0y
01-12-2005, 08:42 PM
^is that me and my old lady...

But you know the rules - you have to guess the previous tab:

E---------------------------------------------------------|
B---------------------------------------------------------|
G--10--10-10-10-10-10-10-10-10-10-10---6---6--8---8---|
D--10--10-10-10-10-10-10-10-10-10-10---6-6-6--8-8-8---|
A---8---8--8--8--8--8--8--8--8--8--8-----4-6-4--6-8-6---|
E--------------------------------------------4------6-----|

Hint: it's from the self titled album

Killb0y
01-14-2005, 04:24 AM
guess c'mon guess, it's not so hard

mrconeman
01-14-2005, 04:07 PM
^is that me and my old lady...

But you know the rules - you have to guess the previous tab:

E---------------------------------------------------------|
B---------------------------------------------------------|
G--10--10-10-10-10-10-10-10-10-10-10---6---6--8---8---|
D--10--10-10-10-10-10-10-10-10-10-10---6-6-6--8-8-8---|
A---8---8--8--8--8--8--8--8--8--8--8-----4-6-4--6-8-6---|
E--------------------------------------------4------6-----|

Hint: it's from the self titled album


easy, Elders


|-----------------------------------|--------------------------
|-----------------------------------|--------------------------
|------11-11-10-10-9--9-------------|--------7-----------------
|------11-11-10-10-9--9--9--9--8-8--|---7----7----9------------
|------9--9--8--8--7--7--9--9--8-8--|---7----5----9------------
|------------------------7--7--6-6--|---5---------7------------


^ should be easy enough

Killb0y
01-15-2005, 11:06 PM
must be L.A.P.D but I play it a diferent way


Here's another one:


E -----------------------------------|
B -----------------------------------|
G --4----7-----------4----7----------|
D --4----7---4-7-----4----7---4-7---|
A --2----5---4-7-----2----5---4-7---|
E ------------2-5--------------2-5---|

The song we all know and love :D

mrconeman
01-17-2005, 10:34 AM
come out and play ^

|-----------------------------|
|-----------------------------|
|-7-7-x-3-3-x-----x-5-5-5-5-5-|
|-7-7-x-3-3-x-3-3-x-5-5-5-5-5-|
|-5-5-x-1-1-x-3-3-x-3-3-3-3-3-|
|-----x-----x-1-1-x-----------|

You should know that by just looking its so easy :)

Killb0y
01-17-2005, 12:34 PM
sounds like that part from Self Esteem but it looks weird to me...

mrconeman
01-19-2005, 03:23 PM
sounds like that part from Self Esteem but it looks weird to me...

*whisper* you were meant to post a tab :p

Mota Boy
01-19-2005, 03:51 PM
OK, we went to a fairly upscale Japanese fusion restaurant.

I ordered the whitefish topped with mixed mushrooms and a delicious sauce. She got the swordfish fillet with seared scallops. We got a roll of "Firecracker" sushi (tuna wrapped in rice which is flash-fried and served hot, though still raw) as a starter and decided not to have dessert. The restaurant automatically added a fifteen percent tip.

Guess the tab.

Killb0y
01-24-2005, 03:46 AM
*whisper* you were meant to post a tab :p

Oops!

|---------------------|----------------------|-----------------------|
|---------------------|----------------------|-----------------------|
|----6-6----5-5-5-5-6|-----6-6----5-5-5-5-6|----6-6----5-5-5-5-6--|
|8-8-8-8--8-8-8-8-8-8|4-4-4-4--4-4-4-4-4-4|6-6-6-6--6-6-6-6-6-6--|
|---------------------|----------------------|-----------------------|
|---------------------|----------------------|-----------------------|

|-----------------------------|
|-----------------------------|
|----8-------6----5-5-5-5-5-6|
|6-6-6--6-6-6--6-6-6-6-6-6-6|
|-----------------------------|
|-----------------------------|

here



OK, we went to a fairly upscale Japanese fusion restaurant.

I ordered the whitefish topped with mixed mushrooms and a delicious sauce. She got the swordfish fillet with seared scallops. We got a roll of "Firecracker" sushi (tuna wrapped in rice which is flash-fried and served hot, though still raw) as a starter and decided not to have dessert. The restaurant automatically added a fifteen percent tip.

Guess the tab.

What the fuck are you talkin' about...

adobohobo88
01-27-2005, 04:06 PM
that's the kids aren't alright


|-8-8-8-8-8-8-8-8-8-8-8-8-8-8-8-8-6-6-6-6-6-6-6-6-6-6-6-6-6-6-6-6-|
|-6-6-6-6-6-6-6-6-9-9-9-9-9-9-9-9-4-4-4-4-4-4-4-4-6-6-6-6-6-6-6-6-|
|---------------------------------------------------------------------|
|---------------------------------------------------------------------|
|---------------------------------------------------------------------|
|---------------------------------------------------------------------|