PDA

View Full Version : Punk-O-Matic (game)



Markus
03-16-2007, 05:57 PM
http://www.evil-dog.com/punkomatic.html

this game is fun and somewhat addicting. You create punk songs with a 3 member band, u pick what tabs they play and when. You can save and share your songs, and upload other peoples songs, its pretty sweet. Enjoy

Llamas
03-16-2007, 06:03 PM
I loved that game... when I was like 16...

Markus
03-16-2007, 06:05 PM
here's a song I made. Just copy the stuff below and go to the load tab on the game and paste it into the designated area.

6-6-6-6-6-0-1-0-1-0-1-0---6-6-6-6666162636-----------------------------------------------3-3-3-3-3-3-3-3-3-3-3-4---3433433433433------------------------------------------a---7-7-a-8-9-0-8-2-2-2-8-9--2-a-2---202--3------------------------------------------

Markus
03-16-2007, 06:06 PM
I loved that game... when I was like 16...

your point? I'll be 20 this year, and I enjoy it. So yea its a game for all ages.

Markus
03-16-2007, 06:10 PM
here's another one I made...

5-5-4-5-0---1-1-1---2---6-2--6-2--6-83---83------------------------------------------c-------6-9---4---9---4---9---4---9---4---9----------------------------------------------a---9-5-818-5-818-5-818-5-818-1---2-1---0----------------------------------------

Zeall
03-16-2007, 06:13 PM
I loved that game... when I was like 16...

may i ask why you even considered posting?:) this IS Markus after all

Llamas
03-16-2007, 06:33 PM
here's a song I made. Just copy the stuff below and go to the load tab on the game and paste it into the designated area.

6-6-6-6-6-0-1-0-1-0-1-0---6-6-6-6666162636-----------------------------------------------3-3-3-3-3-3-3-3-3-3-3-4---3433433433433------------------------------------------a---7-7-a-8-9-0-8-2-2-2-8-9--2-a-2---202--3------------------------------------------

...I didn't know it was possible to make a shitty song with this thing... but that was just awful.

0r4ng3
03-16-2007, 06:46 PM
I remember playing this game. It was fun.

There's a few good songs in this (http://www.offspring.com/forums/showthread.php?t=23455)thread.

Grabbal
03-17-2007, 03:58 AM
The result's turns out good every time.

H1T_That
03-17-2007, 04:09 AM
is there any way of playing it from a certain point rather than liatening to it all the way through to listen to one part?

Grabbal
03-17-2007, 04:12 AM
Not that I see.

H1T_That
03-17-2007, 04:15 AM
The game pretty much sucks. The idea is good, but any combination of random numbers gives as decent song. Its way too easy and thus, no fun at all.

Grabbal
03-17-2007, 04:17 AM
Yeah, you can just press the notes wildly and the song is 99.99 % sure to be pretty good.

Llamas
03-17-2007, 04:33 AM
is there any way of playing it from a certain point rather than liatening to it all the way through to listen to one part?

There is a help button... if you clicked that, you'd know that if you hold the space bar while you click, it'll play from that spot.

H1T_That
03-17-2007, 04:34 AM
I could have done that, but at the time it seemed easier to ask someone to give me the information rather than find it myself. It doesn't matter now anyway.

0r4ng3
03-17-2007, 06:42 PM
I got bored so I decided to make another song.


------784-5-4-5-5-3---3---3---3--7482-482-482-482-5-5-3---3---3---3--74
82-482-482-4827-7-7-7-9-c-9-c-c-0---0---0-c-0-c-9---9---9---9---c-c-0--
-0---0-c-0-c-9---9---9---9------------8---8-8-----------8---8---4---4---4-
--4-8-8-----------8---8---4---4---4---4
This is as close to Billy Talent's "Try Honesty" as Punk-o-Matic would let me do.
Did I mention I was bored?

Grabbal
03-17-2007, 06:43 PM
Is there any way to copy it and insert it in the game??

0r4ng3
03-17-2007, 06:45 PM
Yeah, go to the load screen, and paste where it says "copy friend's data here".

Grabbal
03-17-2007, 06:46 PM
Oh cool. Don't see the resemblense to try honesty though.

Sorry

0r4ng3
03-17-2007, 06:47 PM
It's basically just the same song structure. I said it was as close as it would let me, but I know it's not very close at all.

Grabbal
03-17-2007, 06:52 PM
Made in a rush

-7-0-20211-01-28-3-60----------------------------------------------------------------0002-2---0-3202762101-------------------------------------------------------------------0--3--1--5-20-1-1-----------------------------------------------------------------

Lodat225
03-17-2007, 06:59 PM
Here's mine:


8--8-882--800-1-2---3---0------------------------------------------------------------7-8----0--7-08---2---0---------------------------------------------------------------6-8-6-8-1---6-82-2-3-0---0-----------------------------------------------------------

Whiplash
03-18-2007, 11:27 AM
6-6-111-1---3---3---6-2---3------------------------------4---4---4---6-6-2---2---3-3-2---111-1---3-3-3-3-2---2--------------------------------4-4-4-5-5-5-6-6-6-6-7-7-6-7-6-7-111-1---3-3-3-3-4-4-4-4--------------------

RickyCrack
03-18-2007, 12:32 PM
-----------------------------------------------------
------------fgts--------------------------------------
----------------------------fgts----------------------
----------------------------fgts---------------------
------------------------------------------------fgts-
-----------------------------------------------------

Llamas
03-18-2007, 12:34 PM
-----------------------------------------------------
------------fgts--------------------------------------
----------------------------fgts----------------------
----------------------------fgts---------------------
------------------------------------------------fgts-
-----------------------------------------------------

lol I bet that one isn't real! there aren't supposed to be spaces!!

Whiplash
03-18-2007, 12:51 PM
-----------------------------------------------------
------------fgts--------------------------------------
----------------------------fgts----------------------
----------------------------fgts---------------------
------------------------------------------------fgts-
-----------------------------------------------------

Lolz. It must have taking you a long time to make that.


lol I bet that one isn't real! there aren't supposed to be spaces!!

I would have never guessed.;)