PDA

View Full Version : "In Bloom" Bass tab



Harnum
05-18-2007, 06:02 PM
Ok. Hopefully you all know the song by Nirvana called In Bloom. Anyway, my friend is trying to tell me that the tab I am playing for the verse is wrong. He won't believe me or the tab sites. I doubt this will work either, but maybe if there were others who agreed with me, it'd work.

My Tab:

G|-------------------------------------------------------------
D|------------------------------------------------------------- x4
A|-----------------------------6-6-6-6-6--6-------------------
E|-6-6-6-6-6--6-2-2-2-2-2--2---------------7-7-7-7-5-5-5-5--

SMASH0390
05-18-2007, 06:49 PM
yea thats correct, it could also be played as

G|-------------------------------------------------------------
D|--------------------------1-1-1-1-1--1---------------------- x4
A|-1-1-1-1--1-----------------------------------------------
E|-------------1-1-1-1-1--1---------------2-2-2-2--0-0-0-0-

patoff10
05-18-2007, 07:01 PM
What about the solo guitar ? :D

SMASH0390
05-18-2007, 07:03 PM
what about it? need tabs for it?

Harnum
05-19-2007, 06:05 AM
Smash, what you posted seems incorrect. The notes don't match up.

SMASH0390
05-19-2007, 11:37 AM
you're right i messed up. Its A# F# D# B A. I had the F# as an F



G|-------------------------------------------------------------
D|--------------------------1-1-1-1-1--1---------------------- x4
A|-1-1-1-1--1-----------------------------------------------
E|-------------2-2-2-2-2--2---------------2-2-2-2--0-0-0-0-

German Andres
05-19-2007, 05:30 PM
you're right i messed up. Its A# F# D# B A. I had the F# as an F



G|-------------------------------------------------------------
D|--------------------------1-1-1-1-1--1---------------------- x4
A|-1-1-1-1--1-----------------------------------------------
E|-------------2-2-2-2-2--2---------------2-2-2-2--0-0-0-0-


Sounds good.