PDA

View Full Version : Rise And Fall, Rage And Grace guitar tabs



medi01
06-09-2008, 11:14 AM
anyone know any tabs other than the H-T HH and YGGFK, which have already been tabbed???

I know a bit of Trust in You, but please post any tabs u've figured out or any pages/sites which have the tabs on

Rooster
06-09-2008, 11:43 AM
I found this tab so far

wrong link

Rooster
06-09-2008, 12:19 PM
Damn, it's not the right tab, i noticed too late :mad:
sorry, i'll try to find the right one

ad8
06-09-2008, 12:21 PM
I found this tab so far

http://www.911tabs.com/link/?3662688

Look it's the Hammerhead video! (http://uk.youtube.com/watch?v=eBGIQ7ZuuiU)

dff_punk
06-09-2008, 12:23 PM
Damn you ad8!

medi01
06-09-2008, 12:36 PM
I've had a go at trust in you and nothing town...only bits though...here goes:

Trust in you:

-------------------------------------------------
-------------------------------------------------
-------------------------------6-6-5-6-8-10-8-10
--3---6-6-6---3---8-8-8---3---6-6-5-6-8-10-8-10
--3---6-6-6---3---8-8-8---3---4-4-3-4-6-8--6-8-
--1---4-4-4---1---6-6-6---1---------------------

there is also apart which uses exactly the same chords as dammit i changed again as well but thats all i got so far...will do nothingtown in a min

Rooster
06-09-2008, 12:37 PM
Damn you ad8!

Yeah, I know, I screwed up :rolleyes:. I am searching for the right tab, but it seems that this song hasn't been tabbed yet. If i find the right tab, i'll post the link. I apologise for misleading you.

dff_punk
06-09-2008, 12:40 PM
You ain't done nothing wrong, pal. ad8 did with the video for Hammerhead. I already know how to play Trust In You anyway;)

medi01
06-09-2008, 12:46 PM
Nothing town:

Intro pt1 (i no this is slightly out but best i cud do):

---------------------------------
---------------------------------
--9-9-8-8--------------------9-9
--9-9-8-8-11-11-9-9-7-7-9-9-9-9
--7-7-6-6-11-11-9-9-7-7-9-9-7-7
-----------9--9--7-7-5-5-7-7----

Intro part 2 (which reoccurs most of the way through the song)

------------------------------------------------------------
------------------------------------------------------------
--9-9-----9-9-----------------------------------------------
--9-9-----9-9-11-11-----11-11-7-7-----7-7-9-9-9-9-9-9-9-9
--7-7-----7-7-11-11-----11-11-7-7-----7-7-9-9-9-9-9-9-9-9
---------------9--9------9---9-5-5-----5-5-7-7-7-7-7-7-7-7 - Last 997's pm

thats all i got so far...the rest uses similar chords though...i just can't quite get the order....any advice and comments would be most welcome

Rooster
06-09-2008, 12:54 PM
You ain't done nothing wrong, pal. ad8 did with the video for Hammerhead. I already know how to play Trust In You anyway;)

Oh, my bad again :). I know how to play it too (well, almost, i havent quite figured out the solo yet, since i am learning it without tabs, but i think i will figure it out without much problem).

Damn, 9 posts and two mistakes already.... i must be in an abstinence chrisis from the lack of alcohol :D

dff_punk
06-09-2008, 12:58 PM
.

Damn, 9 posts and two mistakes already.... i must be in an abstinence chrisis from the lack of alcohol :D

I know exactly what you're talking about. This day deserves a few beers.

Superdope
06-09-2008, 01:04 PM
Nothingtown is so my new drinking song

medi01
06-09-2008, 01:07 PM
Nothingtown is so my new drinking song

nothingtown is the shit dude:D

first was a bit average but now i love it guitar bit rocks!

medi01
06-10-2008, 03:58 AM
Stuff Is Messed up Tab:

i've had a quick go at this one...please comment on any corrections:

Intro
---------------
---------------
--(6)-8----8-8-
--(6)-8----8-8-
--(4)-6----6-6-
---------------

Verse:

-----------
-----------
---8-8-8-6
---8-8-8-6
---6-6-6-4
-----------

Chorus:

--------------------
--------------------
--8-8-11-11-----6-6
--8-8-11-11-6-6-6-6
--6-6--9--9-6-6-4-4
-------------4-4----

If you have any links to tabs/ur own tabs please post

medi01
06-10-2008, 04:02 AM
Let's hear it for rock bottom - non ska bit:

------------------
------------------
--7---7-7--------
--7---7-7-7---7-5
--5---5-5-7---7-5
----------5---5-3

Edycal
06-10-2008, 05:35 AM
HammerHead tabs are quite easy

Just power chords for the beginning heavy bit on the top E

6-6-6-4-4
6-6-6-4-4
4-4-4-2-2

and the part after that goes the same as mentioned above but just only the powerchord on the 2nd fret and another at the 4th after awhile...
(This second part is played on the A string below the E)

sorry if a bit confusing

medi01
06-10-2008, 08:08 AM
A lot like me

Intro:

-------------------------------------------------------------------------------
-------------------------------------------------------------------------------
-----------------------7-7-7-7-7-7-7-7-----------------------9-9-9-9-9-9-9-9
--9-9-9-9-9-9-9-9-9-9-7-7-7-7-7-7-7-7-7-7-7-7-7-7-7-7-7-7-9-9-9-9-9-9-9-9
--9-9-9-9-9-9-9-9-9-9-5-5-5-5-5-5-5-5-7-7-7-7-7-7-7-7-7-7-7-7-7-7-7-7-7-7
--7-7-7-7-7-7-7-7-7-7------------------5-5-5-5-5-5-5-5-5-5------------------


another part:

--------------------------------------------------
--------------------------------------------------
--------6-6-6-7-7-7-7-7-7-7-7-----9-9-9-7-7-7-6
--9-9-9-6-6-6-7-7-7-7-7-7-7-7-----9-9-9-7-7-7-6
--9-9-9-4-4-4-5-5-5-5-5-5-5-5-----7-7-7-5-5-5-4
--7-7-7-------------------------------------------

crrrN
06-10-2008, 08:36 AM
I can play Trust In You including solo, I'll record it later and post it on youtube. I dont have tabs, just played it by ear.

Sorry (A)

spidey255
06-10-2008, 08:51 AM
I will be tabbing the album in its entirety in powertab format.

medi01
06-10-2008, 09:15 AM
Fix you:

pretty easy just repeats same guitar all the way through:

--------------------------------------------------------------
--------------------------------------------------------------
--------------------------------------------------------------
------9-----9-9------9-----9-9------9-----9-9------9-----9-9
--7-7--7--7------7-7--7--7-----------------------------------
---------------------------------7-7--7--7------7-7--7--7----

--------------------------------------------------------------
--------------------------------------------------------------
--------------------------------------------------------------
------7-----7-7------7-----7-7-------------------------------
--5-5--5--5------5-5--5--5----------7-----7-7------7-----7-7
---------------------------------5-5--5--5------5-5--5--5----

crrrN
06-10-2008, 09:41 AM
Here's my take on Trust in you.

http://nl.youtube.com/watch?v=TgWqMl_A298

medi01
06-10-2008, 09:43 AM
Here's my take on Trust in you.

http://nl.youtube.com/watch?v=TgWqMl_A298

awesome vid.

crrrN
06-10-2008, 09:50 AM
Thanks. I messed it up, but it's okay ;)

Superdope
06-10-2008, 10:17 AM
I've got nothingtown nailed.. give me a few secs, and I'll see if I can transcribe it...

Intro
|--------------------------------------------------------|
|--------------------------------------------------------|
|--9-9-8-8-6-6-4-4-2-2-4-4-9-9------9-9-9-9-9-9-9-9---|
|--9-9-8-8-6-6-2-4-2-2-4-4-9-9------9-9-9-9-9-9-9-9---|
|--7-7-6-6-4-4-2-2-0-0-2-2-7-7------7-7-7-7-7-7-7-7---|
|--------------------------------------------------------|
---------------------------------------xxxxP.Mxxxx

Verse
|--------------------------------------------------------------------------|
|--------------------------------------------------------------------------|
|--9-9--------9-9-9-6-6--------6-6-6-2-2--------2-2-2-4-4-4-4-4-4-4-4---|
|--9-9--------7-7-7-4-4--------6-6-6-2-2--------2-2-2-4-4-4-4-4-4-4-4---| x3
|--7-7--------7-7-7-4-4--------4-4-4-0-0--------0-0-0-2-2-2-2-2-2-2-2---|
|--------------------------------------------------------------------------|
-------------------------------------------------------xxxxP.Mxxxx
Chorus
|----------------------------------------------|
|----------------------------------------------|
|--2-2-2-2-2-4-4-4-4-4-4--9-9-8-8-6-6-4-4---| x 2
|--0-0-0-0-0-2-2-2-2-2-2--9-9-8-8-6-6-2-4---|
|--0-0-0-0-0-2-2-2-2-2-2--7-7-6-6-4-4-2-2---|
|----------------------------------------------|


|------------------------------------------------------------------------|
|------------------------------------------------------------------------|
|--2-2-2-2-2-4-4-4-4-4-4--------------6-6-4-4--2-2-2-2-2-4-4-4-4-4---|
|--0-0-0-0-0-2-2-2-2-2-2--6-6-6-6-6--6-6-4-4--2-2-2-2-2-4-4-4-4-4---|
|--0-0-0-0-0-2-2-2-2-2-2--6-6-6-6-6--4-4-2-2--0-0-0-0-0-2-2-2-2-2---|
|---------------------------4-4-4-4-4-----------------------------------|

|---------------------------------------------------|
|---------------------------------------------------|
|--9-9---9-9-9-6-6---6-6-6-9-9---9-9-9-4-4-4-4---|
|--7-7---7-7-7-4-4---4-4-4-7-7---7-7-7-4-4-4-4---|
|--7-7---7-7-7-4-4---4-4-4-7-7---7-7-7-2-2-2-2---|
|---------------------------------------------------|

todd5593
06-10-2008, 05:18 PM
KRISTY TAB PLEASE
my ear isnt great. somepeople are gifted. please if you are help me with kristy? i plan on turning it into an acoustic performance, ive done it with other songs before.

todd5593
06-10-2008, 05:20 PM
oh yeah and pm me with it plz

spidey255
06-10-2008, 06:46 PM
http://www.mediafire.com/?mawromy5mxs

That's a zip file of powertabs for Hammerhead, You're Gonna Go Far Kid, Trust in You, Stuff is Messed Up, and A Lot Like Me. I will do some more tomorrow.

Ryder1234
06-10-2008, 07:49 PM
most of the songs i listened to so far are easy. HH, H-T, and TIY are easy, I havent had a go at YGGF,K yet (although i already know the generall chords), and I cant figure out O.C. Life. i know the Chords too, but i cant play them in the right rythm for some reason.
im not listening to the other songs until the album is out.

medi01
06-11-2008, 12:23 PM
I've got nothingtown nailed.. give me a few secs, and I'll see if I can transcribe it...

Intro
|--------------------------------------------------------|
|--------------------------------------------------------|
|--9-9-8-8-6-6-4-4-2-2-4-4-9-9------9-9-9-9-9-9-9-9---|
|--9-9-8-8-6-6-2-4-2-2-4-4-9-9------9-9-9-9-9-9-9-9---|
|--7-7-6-6-4-4-2-2-0-0-2-2-7-7------7-7-7-7-7-7-7-7---|
|--------------------------------------------------------|
---------------------------------------xxxxP.Mxxxx

Verse
|--------------------------------------------------------------------------|
|--------------------------------------------------------------------------|
|--9-9--------9-9-9-6-6--------6-6-6-2-2--------2-2-2-4-4-4-4-4-4-4-4---|
|--9-9--------7-7-7-4-4--------6-6-6-2-2--------2-2-2-4-4-4-4-4-4-4-4---| x3
|--7-7--------7-7-7-4-4--------4-4-4-0-0--------0-0-0-2-2-2-2-2-2-2-2---|
|--------------------------------------------------------------------------|
-------------------------------------------------------xxxxP.Mxxxx
Chorus
|----------------------------------------------|
|----------------------------------------------|
|--2-2-2-2-2-4-4-4-4-4-4--9-9-8-8-6-6-4-4---| x 2
|--0-0-0-0-0-2-2-2-2-2-2--9-9-8-8-6-6-2-4---|
|--0-0-0-0-0-2-2-2-2-2-2--7-7-6-6-4-4-2-2---|
|----------------------------------------------|


|------------------------------------------------------------------------|
|------------------------------------------------------------------------|
|--2-2-2-2-2-4-4-4-4-4-4--------------6-6-4-4--2-2-2-2-2-4-4-4-4-4---|
|--0-0-0-0-0-2-2-2-2-2-2--6-6-6-6-6--6-6-4-4--2-2-2-2-2-4-4-4-4-4---|
|--0-0-0-0-0-2-2-2-2-2-2--6-6-6-6-6--4-4-2-2--0-0-0-0-0-2-2-2-2-2---|
|---------------------------4-4-4-4-4-----------------------------------|

|---------------------------------------------------|
|---------------------------------------------------|
|--9-9---9-9-9-6-6---6-6-6-9-9---9-9-9-4-4-4-4---|
|--7-7---7-7-7-4-4---4-4-4-7-7---7-7-7-4-4-4-4---|
|--7-7---7-7-7-4-4---4-4-4-7-7---7-7-7-2-2-2-2---|
|---------------------------------------------------|

great tab thanks...u don't happen to know the soloie bit after the bass soloie bit?

todd5593
06-11-2008, 06:11 PM
kristy tabb!!!
its actually a hard song to play as far as offspring goes. you need a big hand. unless theres another way to play it??
anyway i tabbed it out please comment on it because i need help and if you comment it goes to the top of the thread chart thingy and every1 sees it and i need help on how to play it better -.-
thanks guys
http://www.offspring.com/forums/showthread.php?t=33015

medi01
06-12-2008, 11:45 AM
Plse check out my Nothingtown cover:

http://www.youtube.com/watch?v=FcwQcUGpmIA