PDA

View Full Version : Takes Me Nowhere tab



Awesomo
06-10-2008, 12:10 AM
Intro/Verse
----------------
----------------
----------------
---------------- X howerver many times it's played
-4---7---2---4--
-2---5---0---2--


PreChorus
---------------------
---------------------
-7---4---6-----------
-7---4---6---7-4----- X 1
-5---2---4---7-4-----
-------------5-2-----

---------------------
---------------------
-7---4---6----------- X 1
-7---4---6------2----
-5---2---4------2----
----------------0----

Chorus
---------------
---------------
---------7---9-
-4---7---7---9- X 3
-4---7---5---7-
-2---5---------

--------
--------
--6-----
--6--2--
--4--2--
-----0--

Post Chorus
----
----
----
-4--
-4--
-2--

Alternate verse
------------------
------------------
--11---9---9---11-
--11--11---9---11- X 2
------------------
------------------


Solo
----------------------------------------------------
----------------------------------------------------
-11-13-14---14-13-14---14-16-14--13--13-14-13-11- X 1
----------------------------------------------------
----------------------------------------------------
----------------------------------------------------

----------------------------------------------------
----------------------------------------------------
-11-13-14---14-13-14---14-16-14--13--11-9-11----- X 1
-----------------------------------------------------
-----------------------------------------------------
-----------------------------------------------------
The chords used under the solo is the same as
verse

This is just the chords, the spacing show relatively close strumming patterns.

Hypodermic_89
06-10-2008, 01:00 AM
Cool kthx L-O-L.