PDA

View Full Version : Kristy Are You Doing Okay? Tabbed! + experienced guitar players question



todd5593
06-11-2008, 04:55 PM
okay i tabbed it out
bar the fifth fret the whole time like this

x
x
5
5
x
x

ALSO PUT CAPO ON FIRST FRET!
now it starts with your first finger on 3 fret, second string from top. figure out the rythm yourself. play that twice now go donw to the first string first fret, then second. looks like this

----|----|----|----|
----|----|----|----|
--55|--55|--55|--55|
--55|--55|--55|--55|
33--|33--|----|----|
----|----|00--|33--|
thats the pre-verse

heres the verse
----|----|----|----|----|----|----|----|
----|----|----|----|----|----|----|----|
--55|--55|--55|--55|--55|--55|--55|--55|
--55|--55|--55|--55|--55|--55|--55|--55|
33--|22--|----|----|----|----|----|----|
----|----|55--|33--|00--|00--|33--|33--|

----|----|----|----|----|----|----|----|
----|----|----|----|----|----|----|----|
2222|2222|4444|4444|--55|--55|--55|--55|
3333|3333|5555|5555|--55|--55|--55|--55|
3333|3333|5555|5555|33--|22--|----|----|
0000|0000|3333|3333|----|----|55--|33--|

Chorus:
----|----|----|----|
----|----|----|----|
5555|----|7777|ttvv|
5555|7777|7777|ttvv|
3333 |7777|5555|88tt|
----|5555|----|----|
*note: "t" stands for ten. "v" stands for twelve. it wouldnt fit right if i wrote 10 or 12 =/
**sorry for 10 edits or something lol i kept fucking up. but this ones right i swear! lol

todd5593
06-11-2008, 05:07 PM
BTW!!
if it sounds wrong you didnt capo the first fret in case you didnt read that part lol.

slimtim
06-11-2008, 05:34 PM
here I got it bro ;)
http://www.azchords.com/g/greenday-tabs-1705/goodriddancetimeofyourlife-tabs-106721.html

todd5593
06-11-2008, 05:50 PM
haha funny man.
too bad the chords arent the same as green day...and i love this song. that songs gay.
yeah it has the same feeling but this song actually gets kinda intense-ish and time of your life sucks.
but seriosuly....i need help lol

holland25
06-12-2008, 08:42 AM
here I got it bro ;)
http://www.azchords.com/g/greenday-tabs-1705/goodriddancetimeofyourlife-tabs-106721.html

How do you dare to compare Kristy to Time of Your Life?! Kristy is 10 times better.

findout5
06-12-2008, 10:04 AM
The G C D chord progression in Good Riddance ripps off Social Distortion's Story of my life :P So, if anything, the Offspring are ripping off Social D! lol
On Rise And Fall however, they did rip off GD! lol

IamSam
06-12-2008, 10:28 AM
G C D has to be the oldest chord progression known to man.

The_Bass
06-12-2008, 10:31 AM
Fuck that. It sounds cool.

Why don't people try to tab out bass tabs. I normally can't hear it :p. I hear it when it's wrong, but don't know every note good enough to be able to tab myself.

I'm only playing for about a year without lessons...

malibu43
06-12-2008, 10:46 AM
The G C D chord progression in Good Riddance ripps off Social Distortion's Story of my life :P So, if anything, the Offspring are ripping off Social D! lol
On Rise And Fall however, they did rip off GD! lol

First of all, yes they are the same chords, but played differently. Greenday, holds the G longer and Social D holds the D chord longer.

And like someone else said, oldest chord progression in the world. No one ripped off anyone.

ad8
06-12-2008, 11:17 AM
On Rise And Fall however, they did rip off GD! lol
No. If anything, they ripped off Dillinger Four.

Macko
06-13-2008, 08:15 AM
Well I play it like this and its really simple..(definitely not perfect but got it after one minute of trying and it doesnt sound that bad..)

---------------------------------------
----1-1-1--------1-1-1------1-1-1-----
----0-0-0-2x-----0-0-0------0-0-0-----
----2-2-2--------2-2-2------2-2-2-----
3-3------------------------------------
------------1-1--------3-3-------------

-------------------------------------------------------------------------------------
----1-1-1------1-1-1-----1-1-1-----1-1-1-----1-1-1-----1-1-1------1-1-1-----1-1-1-
----0-0-0------0-0-0-----0-0-0-----0-0-0-----0-0-0-----0-0-0------0-0-0-----0-0-0-
----2-2-2------2-2-2-----2-2-2-----2-2-2-----2-2-2-----2-2-2------2-2-2-----2-2-2-
3-3--------2-2-------0-0-------------------------------------------------------------
--------------------------------3-3-------1-1-------1-1--------3-3-------3-3--------

EDIT: And WHAT THE FUCK are you talking about??? It has completely nothing in common with Time of your life! NOTHING! oh yeah, they both start with acoustic guitar! OMG how could they stole so fresh and never-heard-before Green Day idea?? THIEFS!!

todd5593
06-13-2008, 04:23 PM
thx man but i figured it out.
go back to my original post ill edit it so its correct. you gotta capo it so you dont have to reach all the way back.

Macko
06-15-2008, 02:50 AM
thx man but i figured it out.
go back to my original post ill edit it so its correct. you gotta capo it so you dont have to reach all the way back.

oh, capo , didnt thought of that :D
still theres one little tiny mistake in the chorus - first chord is C :)

medi01
06-15-2008, 05:22 AM
Chorus:
----|----|----|--------|
----|----|----|--------|
----|----|7777|10101212|
5555|7777|7777|10101212|
5555|7777|5555|8-8-1010|
3333|5555|----|--------|
***note: "t" stands for ten. "v" stands for twelve. it wouldnt fit right if i wrote 10 or 12 =/


i think you might have the first bit wrong :S

when i listened i think this is more accurate:
Chorus:
----|----|----|----|
----|----|----|----|
5555|----|7777|ttvv|
5555|7777|7777|ttvv|
3333|7777|5555|88tt|
----|5555|----|----|

todd5593
06-15-2008, 07:50 AM
oops you guys are right it is a C
when i play it i play C i just tabbed it wrong i guess -.-