PDA

View Full Version : part of Session guitar = part of hammerhead guitar



medi01
06-13-2008, 10:18 AM
i dunno if this has been mentioned before but i was just playing session and just noticed that it followed the exact same pattern as part of the hammerhead tab (but just a fret lower)...if you listen from 1.46-1.56 of session and then listen to 2.49-2.59 of hammerhead u'll see what i mean...the strumming is slightly different and the hammerhead ends differently, but it sounds quite similar...

here are the two tabs so you can see:

Session:

------------------------------------------
------------------------------------------
----------7-7-7----5-5---10-10-10---5-5---play
-pick-----7-7-7----5-5---10-10-10---5-5---3 times
-slide----5-5-5----3-3----8--8--8---3-3---
------------------------------------------

Hammerhead:

e|------------------------------------|
B|------------------------------------|
G|-6-6-x-6--4-4-x-4--9-9--4-x-4-4-5-|
D|-6-6-x-6--4-4-x-4--9-9--4-x-4-4-5-|
A|-4-4-x-4--2-2-x-2--7-7--2-x-2-2-3-|
E|------------------------------------|

Dexter_italy
06-13-2008, 11:12 AM
i dunno if this has been mentioned before but i was just playing session and just noticed that it followed the exact same pattern as part of the hammerhead tab (but just a fret lower)...if you listen from 1.46-1.56 of session and then listen to 2.49-2.59 of hammerhead u'll see what i mean...the strumming is slightly different and the hammerhead ends differently, but it sounds quite similar...

here are the two tabs so you can see:

Session:

------------------------------------------
------------------------------------------
----------7-7-7----5-5---10-10-10---5-5---play
-pick-----7-7-7----5-5---10-10-10---5-5---3 times
-slide----5-5-5----3-3----8--8--8---3-3---
------------------------------------------

Hammerhead:

e|------------------------------------|
B|------------------------------------|
G|-6-6-x-6--4-4-x-4--9-9--4-x-4-4-5-|
D|-6-6-x-6--4-4-x-4--9-9--4-x-4-4-5-|
A|-4-4-x-4--2-2-x-2--7-7--2-x-2-2-3-|
E|------------------------------------|


They are sooo different... but i can get the similarity you see. anyway your hammerhead tab is wrong,,,

e|------------------------------------|
B|------------------------------------|
G|-6-6-x-6--4-4-x-4--9-9--4-----4-5-|
D|-6-6-x-6--4-4-x-4--9-9--4--6--4-5-|
A|-4-4-x-4--2-2-x-2--7-7--2--6--2-3-|
E|----------------------------4-------|

that's it :D
________
Fucktube.net (http://www.fucktube.com/video/6172/sexy-ebony-babe-fucked-through-a-net)

Macko
06-13-2008, 11:18 AM
this thread doesn't deserve even a reply :D
p.s.: ehm, its totally different.. :D

medi01
06-13-2008, 11:22 AM
this thread doesn't deserve even a reply :D
p.s.: ehm, its totally different.. :D

they aren't that far off


sorry the tab was wrong...just got it off ultimate-guitar quickly

Dexter_italy
06-13-2008, 11:45 AM
they aren't that far off


sorry the tab was wrong...just got it off ultimate-guitar quickly


:D don't need excuses for a wrong tab, the 90% of them are wrong :D
________
Opium rehab dicussion (http://www.rehab-forum.com/opium-rehab/)

Jojan
06-13-2008, 01:52 PM
Part of your mother = Part of you

STFU!

dff_punk
06-13-2008, 01:53 PM
I thought Letters Organize wrote Session.

medi01
06-13-2008, 01:54 PM
Part of your mother = Part of you

STFU!

no shit...called ur DNA

funny anyway **hintofsarcasm**

Dexter_italy
06-13-2008, 05:51 PM
I thought Letters Organize wrote Session.

ahuahauahuah that really made me laugh :D
________
BDSM TOYS (http://www.fucktube.com/categories/254/toys/videos/1)

BigFish
06-13-2008, 06:18 PM
Yeah, I'm not gonna give it to you. It's a step lower and an entirely different strumming pattern. I can see how you'd think they're similar...but they're really not. Might as well close this thread.