PDA

View Full Version : Playing the new song on guitar



BigFish
06-20-2010, 05:01 PM
Well, now that we have the new song out, I'm sure there are a few others out there like me who already want to learn to play it. I've noticed something very interesting from the video. Noodles definitely has a capo on his guitar. It appears to be on the second fret. Now, the real question is whether or not they were playing in standard or E flat. I'm led to believe that they're in E flat because Dexter is using his purple RG. So, if anyone else is interested, lets try to figure this song out because I really think it's a good guitar song on it since it's more than just rhythm. I think Noodles really put a lot of time into this song with all the different individual notes picking parts. So yeah, I'll see what I can come up with, and if anyone else wants to contribute, that'd be cool. Just remember that capo!

DMelges
06-20-2010, 05:05 PM
I hadn't even noticed the capo on Noodles' guitar, but here's what I got just by ear. I'm pretty sure this is 100% correct.


Intro

e--------------------------------------------------------------
B-------------------------------------------------------------
G----6-5---6-5---6-5----6-5-------------------------------------------
D---------------------------------x4----------------------------
A--6-----6-----6------6-------------------------------------------
E--------------------------------------------------------------

Lead

e------------------------------------------------------------------
B----------------------8-9-8--------------------------------------
G--6-6-8-6-8-6-8-6-8--------x4------8-8-8-8-8-8-8-8----6---6---
D-------------------------------------8-8-8-8-8-8-8-8----6---6--
A-------------------------------------6-6-6-6-6-6-6-6----4---4--
E-----------------------------------------------------------------

Base

e------------------------------------------------------------------------
B------------------------------------------------------------------------
G--8-8-8-8-8-8-8-8-8--6-6-6-6-6-6-6-6----------------------8---6--6---
D--8-8-8-8-8-8-8-8-8--6-6-6-6-6-6-6-6--6-6-6-6-6-6-6-6----8---6--6---
A--6-6-6-6-6-6-6-6-6--4-4-4-4-4-4-4-4--6-6-6-6-6-6-6-6----6---4--4---
E-----------------------------------------4-4-4-4-4-4-4-4---------------

Break

e-------------------------------------------------------------------------
B-------------------------------------------------------------------------
G--8-8--8-8--8-8--8-8--8-8---6-6---------------------------------------
D--8-8--8-8--8-8--8-8--8-8---6-6----------------------------------------
A--6-6--6-6--6-6--6-6--6-6---4-4----------------------------------------
E-------------------------------------------------------------------------


That's all I got so far.

As for the lyrics... I can only understand the chorus.

You will find a way, I know, I know
You will find a way, I know
Too yesterdays, I know
You will find a way
I know!

Ryder1234
06-20-2010, 08:37 PM
I'm thinking about just going ahead and making a cover of it... it'd be cool to see how close I come to the studio version (if it makes the album that is). I'd only do the vocals in the chorus though... unless I could make out some of the verses.