PDA

View Full Version : Red Viking's Guitar Pro



RedVikingsCO1
12-12-2010, 12:08 AM
I am in the process of making complete tabs for various offspring songs for the computer program "Guitar Pro 5"

I would like to share my first song which is "Million Miles Away" hopefully you can enjoy it!

(side note: the ending where there is multiple singing going on is elimated because i plan to put this into Guitar Hero 5 in the custom music maker)

http://www.mediafire.com/?371htm5btzwiqok

I also will take requests I can do anything off the following albums:
Smash
Ixnay
Americana
Greatest hits
Conspiracy of One

Chainsaw
12-14-2010, 06:38 AM
Seems pretty accurate, but after the intro guitar1 keeps playing its riff. You kept it later on, so it seems maybe you just forgot.

Jojan
12-14-2010, 09:23 AM
You play:

E |-------------------------||-------------------------||-------------------------||-------------------------|
B |-------------------------||-------------------------||-------------------------||-------------------------|
G |-11----11----11-11-11----||-11-11-11-11----11-11-11-||-------------------------||-9--9--9--9-----9--9--11-|
D |-11----11----11-11-11----||-11-11-11-11----11-11-11-||-7-----7-----7--7--7--7--||-9--9--9--9-----9--9--11-|
A |-9 -- -9 -- -9 -9 -9 -- -||-9 -9 -9 -9 ----9 -9 -9 -||-7-----7-----7--7--7--7--||-7--7--7--7-----7--7--9 -|
E |-------------------------||-------------------------||-5-----5-----5--5--5--5--||-------------------------|

but should it not be more like


E |-------------------------||-------------------------||-------------------------||-------------------------|
B |-------------------------||-------------------------||-------------------------||-------------------------|
G |-11----11----11-9--11----||-14-11-11-9-----11-11-11-||-------------------------||-9--9--9--9-----9--9--9--|
D |-11----11----11-9--11----||-14-11-11-9-----11-11-11-||-7-----7-----7--7--7--7--||-9--9--9--9-----9--9--9--|
A |-9 -- -9 -- -9 -7--9 -- -||-12-9 -9 -7-----9 -9 -9 -||-7-----7-----7--7--7--7--||-7--7--7--7-----7--7--7--|
E |-------------------------||-------------------------||-5-----5-----5--5--5--5--||-------------------------|?

martin_theoffspring
12-14-2010, 06:00 PM
You play:

E |-------------------------||-------------------------||-------------------------||-------------------------|
B |-------------------------||-------------------------||-------------------------||-------------------------|
G |-11----11----11-11-11----||-11-11-11-11----11-11-11-||-------------------------||-9--9--9--9-----9--9--11-|
D |-11----11----11-11-11----||-11-11-11-11----11-11-11-||-7-----7-----7--7--7--7--||-9--9--9--9-----9--9--11-|
A |-9 -- -9 -- -9 -9 -9 -- -||-9 -9 -9 -9 ----9 -9 -9 -||-7-----7-----7--7--7--7--||-7--7--7--7-----7--7--9 -|
E |-------------------------||-------------------------||-5-----5-----5--5--5--5--||-------------------------|

but should it not be more like


E |-------------------------||-------------------------||-------------------------||-------------------------|
B |-------------------------||-------------------------||-------------------------||-------------------------|
G |-11----11----11-9--11----||-14-11-11-9-----11-11-11-||-------------------------||-9--9--9--9-----9--9--9--|
D |-11----11----11-9--11----||-14-11-11-9-----11-11-11-||-7-----7-----7--7--7--7--||-9--9--9--9-----9--9--9--|
A |-9 -- -9 -- -9 -7--9 -- -||-12-9 -9 -7-----9 -9 -9 -||-7-----7-----7--7--7--7--||-7--7--7--7-----7--7--7--|
E |-------------------------||-------------------------||-5-----5-----5--5--5--5--||-------------------------|?

nop, in the solo there is an error