PDA

View Full Version : days go by guitar tab



weezly
04-29-2012, 12:18 AM
anyone got it? or no where to find it?

GamerKT
04-29-2012, 12:24 AM
anyone got it? or no where to find it?

I know where to find it.

The future. :p


inb4TheFutureIsNow

KickHimWhenHe'sDown
04-29-2012, 12:59 AM
I know where to find it.

The future. :p

But if the future is now......

GamerKT
04-29-2012, 01:35 AM
but if the future is now......

NOISaidinb4Goddammit

Jojan
04-29-2012, 05:22 AM
The bass is only E A D E and then a quick D again in the end for the verse and D, A, E, Gb, D, A, E, E in the chorus.

randman21
04-29-2012, 05:40 AM
I'm getting B-minor instead of Gb in the chorus. But yep, that's pretty much the song.

Gregmau5
04-29-2012, 05:50 AM
Main Riff -

E ----------------
B ----------------
G -----9-7-------
D -7-9----9-7-6-
A ----------------7
E -----------------

Something like that, correct me if I'm wrong, put this together in about 2 minutes.

randman21
04-29-2012, 06:01 AM
Very close, Gregmau5! But you have to hit the 7 fret of the A string before most of the other notes. Kind of like:

E ------------------------
B ------------------------
G -------9---7------------
D -7-9-----------9---7-6--
A -----7---7---7---7-----7
E -------------------------

EDIT: Then, on the last time doing the riff it's like:


E ----------------------------
B ----------------------------
G -------9---7----------------
D -7-9-----------9---7-9-7-6--
A -----7---7---7---7---------7~
E ----------------------------

KickHimWhenHe'sDown
04-29-2012, 10:41 AM
NOISaidinb4Goddammit
IDon'tknowWHATthateVenMEans.

Gregmau5
04-30-2012, 12:01 AM
Very close, Gregmau5! But you have to hit the 7 fret of the A string before most of the other notes. Kind of like:

E ------------------------
B ------------------------
G -------9---7------------
D -7-9-----------9---7-6--
A -----7---7---7---7-----7
E --------------------------

Ah, of course. Knew I was missing something. Thanks.

taku2
04-30-2012, 12:25 AM
Ah, of course. Knew I was missing something. Thanks.

I covered this song!(I played guitar and bass)
http://www.youtube.com/watch?v=yQAPz4g9Op8

Check it:D

Jojan
04-30-2012, 05:16 AM
I covered this song!(I played guitar and bass)
http://www.youtube.com/watch?v=yQAPz4g9Op8

Check it:D

Well done. But should rather play using the E string for A and B (as below in the chorus) because it is a lot simpler as you do not have to move your left hand as much.


G |---------|
D |---------|
A |-5---7---|
E |---5---7-|

Logjima
04-30-2012, 07:22 AM
It should be on Ultimate Guitar in 48 hours or less. It sounds about right to me, but it's the first tab on there, and the first tab I've ever done. So be sure to check that out soon.

Gregmau5
05-04-2012, 06:19 AM
Okay. This seems about right.

Intro (clean)

Lead
e|--------------------------------------------------|
B|--------------------------------------------------|
G|----9-----6s4-4s2-2-2h42p1------------------------|
D|--------------------------------------------------|
A|-7------------------------------------------------|
E|--------------------------------------------------|

e|--------------------------------------------------|
B|--------------------------------------------------|
G|----9-----6s4-4s2-2-7s9-9-9-----------------------|
D|--------------------------------------------------|
A|-7----7-------------------------------------------|
E|--------------------------------------------------| x2
Rhythm (Overdrive)
e|--------------------------------------------------|
B|--------------------------------------------------|
G|--7-7---------------------------------------------|
D|--7-7---------------------------------------------|
A|--5-5---------------------------------------------|
E|--------------------------------------------------|

Main Riff
Lead (Distortion)
e|--------------------------------------------------|
B|--------------------------------------------------|
G|-------------9---7--------------------------------|
D|------7h9-------------9---7--9--7p6---------------|
A|-----------7---7---7----7-----------7-------------|
E|--------------------------------------------------| x3

e|--------------------------------------------------|
B|--------------------------------------------------|
G|-------------9---7--------------------------------|
D|------7h9-------------9---7--9--7h9-7p6-----------|
A|-----------7---7---7----7-------------------------|
E|--------------------------------------------------|

Rhythm (Overdrive) Listen for the Rhythm
e|--------------------------------------------------|
B|--------------------------------------------------|
G|---9-------7---------------9------7---------------|
D|---9-------7------7--------9------7---------------|
A|---7--(x8)-5-(x8)-7--------7------5-(x2)----------|
E|---0--------------5--(x8)--0-(x6)-----------------|

Play the whole sequence twice.

Verse

E
Weren't you the light'
** * * * D
It won't save you tonight
** * * *A
All our lesson is'
** * * * * * * * E
Pictures lost in time
E
Never enough,
** * * D
towers crumble to dust.
** * * *A * * * * * * * * * * * * D
Looking back on the moments of our lives

Chorus
** * * * D * * * * * * * A
All your anger, all your hurt
** * * * * E * * * * * * Bm
It doesn't matter in the end
** * *D * * *A * * * * *E
Those days go by and we all start again

Chorus (Lead)
Again, Listen for the Rhythm
e|--------------------------------------------------|
B|-12-10-9---7-77-7--5-55-5--9-99-9-9-9-------------|
G|--------------------------------------------------|
D|--9-7--6---4-44-4--2-22-2--6-66-6-6-6-------------|
A|--------------------------------------------------|
E|--------------------------------------------------|

Song Order
Intro
Main Riff
Verse
Chorus
Main Riff
Verse
Chorus
Intro
Main Riff
Chorus x2
Outro into fade out (same as chorus chords)

Gregmau5
05-04-2012, 06:31 AM
Not sure if this is 100% correct.

Lyrics:

Weren’t you the light
It won’t save you tonight
All our yesterdays
Pictures lost in time
Never enough, towers crumble to dust.
Looking back on the moments of our lives

All your anger, all your hurt
It doesn’t matter in the end
Those days go by*
And we all start again
What you had and what you lost
They’re all memories in the wind
Those days go by*
And we all start again

Stars still burn bright
Seasons change over night
As we find a way
The times they come and go
Look back in love
A new day rises above
With no end it comes*
To carry you back home

All your anger, all your hurt
It doesn’t matter in the end
Those days go by*
And we all start again
What you had and what you lost
They’re all memories in the wind
Those days go by*
And we all start again

Oh, oh days go by

All your anger, all your hurt
It doesn’t matter in the end
Those days go by*
And we all start again
What you had and what you lost
They’re all memories in the wind
Those days go by*
And we all start again

What you had and what you lost
What you had and what you lost
Those days go by
Those days go by
Those days go by

BigFish
05-04-2012, 08:33 AM
I can already tell you that the proper tab is gonna be with a capo on the second fret. I had made a tab for the old version of the song, but they changed the key and the riffs, but the verse and chorus is almost exactly the same. When I get a bit more time on my hands I'll put together a proper tab.