PDA

View Full Version : Pass Me By Tab



Awesomo
04-08-2005, 09:37 PM
Just incase anyone liked the riff on Pass Me By but didnt know how to play it, well here it is, ENJOY!




e---------------------------------------------------
B---------------------------------------------------
G--------------------------------------------------- X howevermanytimes
D---------------------------------------------------
A--4---7-6-7---4---7-6-7---0---7-6-7---2---6-4-6--
E---4------------4-------------0------------2--------

D--------2/4--4/6------------------------------------
A-2---2---------------------------------------------- <-- Lasttimethrough
E---2------------------------------------------------

Homer
04-08-2005, 09:46 PM
go home, and stay there

Awesomo
04-08-2005, 09:58 PM
I am home, and I wasn't planning on leaving at the moment.

Homer
04-08-2005, 09:59 PM
awww damnit. My mistake.

ygokazuki
10-02-2005, 06:57 AM
mine's better XD

pretty_fly_white_guy858
10-02-2005, 09:47 AM
Just incase anyone liked the riff on Pass Me By but didnt know how to play it, well here it is, ENJOY!




e---------------------------------------------------
B---------------------------------------------------
G--------------------------------------------------- X howevermanytimes
D---------------------------------------------------
A--4---7-6-7---4---7-6-7---0---7-6-7---2---6-4-6--
E---4------------4-------------0------------2--------

D--------2/4--4/6------------------------------------
A-2---2---------------------------------------------- <-- Lasttimethrough
E---2------------------------------------------------


Pass Me By?? What the fuck??

Dexter_italy
10-02-2005, 10:47 AM
why put the tab of a song that doesn't exist.... you don't even know if that was the demo of pass me by, or even if pass me by will be a title.
________
W210 (http://www.mercedes-wiki.com/wiki/Mercedes-Benz_W210)

SeanAshmore
10-02-2005, 02:32 PM
Jeez, leave the guy alone. I thought it was cool. What does it matter wether its gonna be called pass me by, thats what most people are calling it.

Much appreciated man, saved me the bother lol.

cheers.

NDM1
10-02-2005, 04:03 PM
Pass me by?????

H1T_That
10-02-2005, 04:40 PM
pass me by....that made up or something?

Awesomo
10-02-2005, 05:48 PM
It was the last clip of a song on that video they had of them in the studio for Splinter. Still dissapointed it was nowhere to be found. Maybe next album?

H1T_That
10-02-2005, 05:49 PM
It was the last clip of a song on that video they had of them in the studio for Splinter. Still dissapointed it was nowhere to be found. Maybe next album?

i still have no idea what ur talking about...but if its new offspring songs, im excited about it

Drummerguy123
10-02-2005, 06:17 PM
Could someone upload it for me?

offspring_freak_3
10-02-2005, 06:30 PM
http://s38.yousendit.com/d.aspx?id=0L8SE45N6A5TL01FVSN3K72FCT

here ya go. enjoy

Drummerguy123
10-02-2005, 07:28 PM
Thanks a lot!

offspring_freak_3
10-02-2005, 07:34 PM
no prob .

NDM1
10-02-2005, 08:51 PM
That riff is so sweet. If they make it into another song, it will sound like a splintered up dirty magic.

sebastienfan
10-02-2005, 09:18 PM
for those who dint hear my version here it is.

http://s56.yousendit.com/d.aspx?id=...YT3DAZ1NUYG577I

el cheelo
10-03-2005, 03:10 AM
yeh that sounds pretty sweet, but how do u guys know its called 'pass me by'
:confused:

sebastienfan
10-03-2005, 09:56 AM
i dont really think its called pass me by,i think it was a alternative to Race against myself because if you take a look at interviews "new album part 2" on the web site you can find dexter talking about upcoming album splinter and he mansion pass by by:

[D]: Kind of a slow rock song that kind of like…well, I like it a lot. I‘ve called it ‘Pass Me By‘.

for me its like at the end of smash you can hear a demo of change the world then they puted the full version on the next album,i hope that what they will do with that demo.