PDA

View Full Version : Guess the Guitar riff, add a new one



metal2kgirl
11-05-2004, 01:44 PM
Okay, I dont know how well this is gonna work out, but basicly I am going to put down a guitar riff... You try and guess what song the riff is from the you put down a new one for someone else to guess... the most complicated thing about this is typing the riff... but that isnt really hard.. Like i said i have no idea how well this is going to work out, I was just curious on the outcome, and so here we go.....

-------------------------------------------------
-------------------------------------------------
-7-7-7-7-----10-10-10-10----5-5-5-5--------------
-7-7-7-7-----10-10-10-10----5-5-5-5----5-5-5-5---
-5-5-5-5------8--8--8--8-----3-3-3-3----5-5-5-5---
------------------------------------------3-3-3-3---
This is an intro to a song... a good way to guess what it is, just as a hint to you all is play the riff, if you hear it you may know it... anyway, good luck...

Zee
11-05-2004, 01:51 PM
Hehe, well I'll answer.

Session

# chorus2 #
E----------------------------------------------|
B----------------------------------------------|
G-------7---9---5-------7---9---5-5-5--7-7-7---|
D---5---7---9---5---5---7---9---5-5-5--7-7-7---|
A---5---5---7---3---5---5---7---3-3-3--5-5-5---|
E---3---------------3--------------------------|

Jewel_Blue_Ibanez
11-05-2004, 01:52 PM
Okay, I dont know how well this is gonna work out, but basicly I am going to put down a guitar riff... You try and guess what song the riff is from the you put down a new one for someone else to guess... the most complicated thing about this is typing the riff... but that isnt really hard.. Like i said i have no idea how well this is going to work out, I was just curious on the outcome, and so here we go.....

-------------------------------------------------
-------------------------------------------------
-7-7-7-7-----10-10-10-10----5-5-5-5--------------
-7-7-7-7-----10-10-10-10----5-5-5-5----5-5-5-5---
-5-5-5-5------8--8--8--8-----3-3-3-3----5-5-5-5---
------------------------------------------3-3-3-3---
This is an intro to a song... a good way to guess what it is, just as a hint to you all is play the riff, if you hear it you may know it... anyway, good luck...

That's not fair. Some of us don't play guitar. I think it should be do dooed and da daaed.

neocon58
11-05-2004, 04:15 PM
Hehe, well I'll answer.

Session

# chorus2 #
E----------------------------------------------|
B----------------------------------------------|
G-------7---9---5-------7---9---5-5-5--7-7-7---|
D---5---7---9---5---5---7---9---5-5-5--7-7-7---|
A---5---5---7---3---5---5---7---3-3-3--5-5-5---|
E---3---------------3--------------------------|


dunno that, sounds a bit like 'when i come around'

try this:


Main riff
e|---------------------------------------------------------|
B|---------------------------------------------------------|
G|-----------------10-10---5--5---5-5-5-5------------------|
D|-7--7--7-7-7-7---10-10---5--5---5-5-5-5----5--5----------|
A|-7--7--7-7-7-7---8--8----3--3---3-3-3-3----5--5----------|
E|-5--5--5-5-5-5-----------------------------3--3----------|


if you dont know this one, i dont know what weel do with you.

nitropenguin!
11-05-2004, 04:16 PM
That's not fair. Some of us don't play guitar. I think it should be do dooed and da daaed.
Yeah! I agree! lol

No Brakes Boy
11-05-2004, 04:17 PM
You fucking fuck I hope you're not trying to oust my thread cos if you are then you've got a long way to go. Anyway not everyone plays guitar, therefore, it burn like an armageddon flame!

cutiegurl
11-05-2004, 04:18 PM
what the hell is a riff? ok yeah i need to learn more about guitars and shit like that whatever im just sooo fucking stupid anyways
Yeah! I agree! lol

Zee
11-05-2004, 04:20 PM
dunno that, sounds a bit like 'when i come around'

try this:


Main riff
e|---------------------------------------------------------|
B|---------------------------------------------------------|
G|-----------------10-10---5--5---5-5-5-5------------------|
D|-7--7--7-7-7-7---10-10---5--5---5-5-5-5----5--5----------|
A|-7--7--7-7-7-7---8--8----3--3---3-3-3-3----5--5----------|
E|-5--5--5-5-5-5-----------------------------3--3----------|


if you dont know this one, i dont know what weel do with you.

That's an easy on, come on! Self Esteem...

Mine was Leave It Behind chorus.

Ok, next one;

|-----------------------------|
|-----------------------------|
|--9--9-9--11--12--11--7------|
|--9--9-9--11--12--11--7---9--|
|--7--7-7--9---10--9---5---9--|
|--------------------------7--|
(chorus again)...

offspringbaby2004
11-05-2004, 04:35 PM
That's not fair. Some of us don't play guitar. I think it should be do dooed and da daaed.

LOL, thats great :) Well soon I will be able to figure out what song it is, I am just learning how to play the guitar right now :p

~mandy~

phoenix
11-05-2004, 04:36 PM
You fucking fuck I hope you're not trying to oust my thread cos if you are then you've got a long way to go. Anyway not everyone plays guitar, therefore, it burn like an armageddon flame!

haha good point
u know what a weird game it is that ur playing

lousyskater
11-05-2004, 05:37 PM
That's an easy on, come on! Self Esteem...

Mine was Leave It Behind chorus.

Ok, next one;

|-----------------------------|
|-----------------------------|
|--9--9-9--11--12--11--7------|
|--9--9-9--11--12--11--7---9--|
|--7--7-7--9---10--9---5---9--|
|--------------------------7--|
(chorus again)...

too easy, that one is Conspiracy of One, i think.

here, try this:


l--5--5-5--3-3-3--6-3-3-------------------l
l--3--3-3--3-3-3--3-3-5-------------------l
l------------------------------------------l
l------------------------------------------l
l------------------------------------------l
l------------------------------------------l
________
Buy glass pipes (http://glasspipes.net/)

Zee
11-06-2004, 05:27 AM
Don't think so, it was supposed to be "Nothing From Something". :o

It was missing one --- though.
---
-7-
-7-
-5-

Yours is "Beheaded".

B|------------------------------|
G|9-7-9-12-12-11-9-7-9-14-14-12-|
D|9-7-9-12-12-11-9-7-9-14-14-12-|
A|7-5-7-10-10--9-7-5-7-12-12-10-|
E|------------------------------|

offspringpunk137
11-06-2004, 06:09 AM
that was no brakes..

Intro (repeat as many times as needed)
e--------------------------------------------------------------------
B--------------------------------------------------------------------
G--------------------------------------------------------------------
D-------2--------------2--------------2------------------------------
A---0-------0------3-------3------2-------2--------------2-----------
E------------------------------------------------0---3-------3-------

Zee
11-06-2004, 06:17 AM
Woah, first one right from others. :eek:

Vultures.

e|---8--9--8----------------|
B|-------------9--8---------|
G|------------------9-10----|
D|--------------------------|
A|--------------------------|
E|--------------------------|

TheHulaChick
11-06-2004, 06:25 AM
Living in Chaos.

How bout this one:

|-------8--------6-------4----|
|---9-----9--------8-------6-|
|-8---8-------8--------6-----|
|-----------------------------|
|-----------------------------|
|-----------------------------|

Dexter_italy
11-06-2004, 08:13 AM
Living in Chaos.

How bout this one:

|-------8--------6-------4----|
|---9-----9--------8-------6-|
|-8---8-------8--------6-----|
|-----------------------------|
|-----------------------------|
|-----------------------------|

That should be spare me the details
try this
|-----------------------------------------|
|-------------------------------2---2-2---|
|--------------------------2--2---------2-|
|-----------2--2-4-2-4-2-4--------2-------|
|-4-2-4-2-4-------------------------------|
|-----------------------------------------|
________
VAAAPP VAPORIZER (http://essentialvaaappvaporizer.com)

offspringpunk137
11-06-2004, 02:50 PM
umm i thihk either the disclaimer..or yea thats the disclaimer lol

try this..

Intro/Verse:
|-----------------------------------------------------------------|
|-----------------------------------------------------------------|
|-----------------5-5-5-5-2-----------------8-9-8-----------8-9-8-|
|-2-2-2-2-5-5-5-5-5-5-5-5-2-drums-9-9-9-9-9-8-9-8-9-9-9-9-9-8-9-8-|
|-2-2-2-2-5-5-5-5-3-3-3-3-0-------9-9-9-9-9-6-7-6-9-9-9-9-9-6-7-6-|
|-0-0-0-0-3-3-3-3-----------------7-7-7-7-7-------7-7-7-7-7-------|

metal2kgirl
11-06-2004, 09:40 PM
That's not fair. Some of us don't play guitar. I think it should be do dooed and da daaed.

Yeah when i made this i was considering doing a thing where u can do a drum lick or a bass riff or any of the 3 instruments, because i play all 3 i can do that it would be no prob, but then it might just get confusing, i think im just going to do another thred for drums and one for bass, cause this is doing beter than i thought it would :)

Delanea aka Metal2kGirl

metal2kgirl
11-06-2004, 09:45 PM
You fucking fuck I hope you're not trying to oust my thread cos if you are then you've got a long way to go. Anyway not everyone plays guitar, therefore, it burn like an armageddon flame!

heh i dont even know what ur thred is... i just made my membership like a week ago and really having been around this too mucha nd any threds i have seen i dont really remember off hand anyway... umm.. yeah, i just did this to see how it would turn out, and like i just stated ill probably do this with bass and drums too.. but anyways... yeah.... bye

Delanea aka Metal2kGirl

metal2kgirl
11-06-2004, 09:50 PM
what the hell is a riff? ok yeah i need to learn more about guitars and shit like that whatever im just sooo fucking stupid anyways

haha im making alot of coments huh? hah, yeah and lol about the "sooo fuckin stupid" part... i doubt ur that dumb just cause you dont know what a riff is, but maybe u'll see this comment... anyways, a riff simply put is... hmm... well, for example, whatever Noodles plays for the verse of say... Staring at the Sun, that would be the verse riff. its whatever is played during a certain part of the song... chorus, verse, intro, ect.. and if it is repeated u wouldnt put it down twice, we would figure its repeated, and for the most part, riffs are usually one or two messures long depending... anyway... i never was good explaining this but yeah, thats that...

Delanea aka Metal2kGirl

offspringpunk137
11-07-2004, 09:13 AM
well it would b cool to have a bass riff one and a drum riff one but all there songs r practically the same on drums..considering all they do is fast punk beats exept for the self titled cd

Dexter1989
11-07-2004, 09:52 AM
this thing wont work with chord parts, maybe with solos or riffs.

Jake
11-07-2004, 09:54 AM
alot of offspring songs are pretty easy songs to play once you get used to them!