PDA

View Full Version : Song Noodles play on Hucket Guitar tab?



Toxic Speed Bump
05-24-2005, 09:42 AM
You know, the song he play with the accustic and the cigerette in his mouth.

What is that song called?

and where can I find the full tab to it?

IdleOffspring
05-24-2005, 10:08 AM
-0-2-3---2-0---|-0-2----------|--------------|---------------|
-------------4-|-----0--2-4-5-|-3-1-0--------|-----0---------|
---------------|--------------|--------2-0---|-0-2---2-0-----|
---------------|--------------|------------4-|-----------4-2-|
-------------2-|-----2--------|-----2--------|---------------|
-3-2-0---------|------------0-|--------------|---------------|


-0-2-3---2-0---|-0-2----------|--------------|---------------|
-------------4-|-----0--2-4-5-|-3-1-0--------|---------------|
---------------|--------------|--------2-0---|-----0-0-------|
---------------|--------------|------------4-|-----0-0-------|
-------------2-|--------------|-----2------5-|-0-------------|
-3-2-0---------|-----2------0-|--------------|-----3-3-------|

RobinoZombie
05-24-2005, 03:09 PM
might keep you busy a while

nameless
05-24-2005, 03:24 PM
i know the one you mean, i havent watched it much, i just thought that was some random stuff!

phoenix
05-24-2005, 04:08 PM
o yeah...some classical one...i dunno,i payed more attention to his cool to hate bit.haha that was funny

IdiotOfTheDay
05-24-2005, 06:30 PM
I have the same guitar as the one he plays in that video....my mom got it for her fifteenth birthday (she's forty-something-or-other now) and gave it to me when we moved to Florida.