PDA

View Full Version : Probobly the easiest Offspirng song ever!



Jojan
05-29-2005, 05:37 AM
I'm speaking about Can't Repeat. The bass lines just A, C, F, G. with exeption for after the 'quiet' (2:34) part, where it ("Life goes on" 2:50) C, G and then it continues. And of course it's only A.

mrconeman
05-29-2005, 06:03 AM
There pretty much all easy

Fall-children
05-29-2005, 09:29 AM
can somebody post the tab because i dont know how to read notes i jsut like those

--24-5-6---7-3-2-2
---4---5----6-6-3--2-
-----------------------
-1---2----44----444444--- = (Example its not a song) yet...

Zee
05-29-2005, 10:27 AM
It can't get any simplier indeed.

Sinister
05-29-2005, 11:18 AM
I'd like to remind you all that Offspring music is meant to be punk. and punk has always been simple, as far as I know. Simple and great.

freak-doll
05-29-2005, 11:26 AM
here is da tab 4 fall children
-played throughout the song, in the intro with a strange effect and in the verses with some palm mutes-

A5 C5 F5 G5
e|---------------|
B|---------------|
G|-----5---------|
D|-7---5---3---5-|
A|-7---3---3---5-|
E|-5-------1---3-|


Interlude Riff:
-played over 'Main Chords'-

e|----------------------|
B|-10-8-8---------------|
G|--------9-9-7-7-9-----| 2x
D|----------------------|
A|----------------------|
E|----------------------|

e|-8-7------------------|
B|-----10-8-10~-(8-10~)-| 2x (play brackets only 2nd time)
G|----------------------|
D|----------------------|
A|----------------------|
E|----------------------|

Bridge:
-play one time just the 'Main Chords', then just bass, and then pickscrape and play this-

e|-------------------------------------------------|
B|-------------------------------------------------|
G|------------5-5------5-----------------------5---|
D|-7-7------7-5-5------5-3-3---3---3---3-5-----5-5-|
A|-7-7------7-3-3------3-3-3---3---3---3-5-----3-5-|
E|-5-5------5------------1-1---1---1---1-3-------3-|

Outro:
-I couldn't hear it well enough on the radio because the song started fading out, but play something like this (I'll update the tab when I'll get the full version of the song)-

e|---------------------------------|
B|---------------------------------|
G|---------4-4-4-4-5-5-5-5-7-7-7-7-|
D|-7-7-7-7-x-x-x-x-x-x-x-x-x-x-x-x-|
A|-x-x-x-x-2-2-2-2-3-3-3-3-5-5-5-5-|
E|-5-5-5-5-------------------------|

e|----------------------------------------|
B|----------------------------------------|
G|-17-17-17-17-16-16-16-16-17-16-14-12-14-|
D|--x--x--x--x--x--x--x--x--x--x--x--x--x-|
A|-15-15-15-15-14-14-14-14-15-14-12-10-12-|
E|----------------------------------------

e|-------------------------------|
B|-------------------------------|
G|-------------------------------|
D|-7-7-7---7-7-7---7-7-7---7-7-7-|
A|-7-7-7---7-7-7---7-7-7---7-7-7-|
E|-5-5-5---5-5-5---5-5-5---5-5-5-|
. . . . . . . .
this isnt my tab so thank you 2 who ever did get da tab

Homer
05-29-2005, 12:10 PM
you know what's an easy Offspring song to play on the drums? Defy You. But, Pay The Man's a bitch, and Kick Him When He's Down is in the middle.

Dexter_Kyle
05-29-2005, 12:12 PM
You play drums Homer ????
YOu know what else is a bitch ? Kill The president and Tehran... :eek:

Homer
05-29-2005, 12:17 PM
You play drums Homer ????
YOu know what else is a bitch ? Kill The president and Tehran... :eek:

nah, Kill The President is easy. But I don't know about Tehran....


Have you tried playing KTP? If so, did you use a tab? And Where'd you get it from?

Tired_Of_You
05-29-2005, 02:20 PM
Can't Repeat on both bass and guitar is really easy. I don't know for drums.

nameless
05-29-2005, 02:24 PM
do you guys learn songs pretty much note for note and know all the changes and stuff, or just play along as best you can by ear?!

Tired_Of_You
05-29-2005, 02:25 PM
I learned Can't Repeat by myself.

nameless
05-29-2005, 02:27 PM
I learned Can't Repeat by myself.

do you know it perfectly, i just like to learn songs pretty much near enough! dont ask why! just wondered what everyone else does?!

Tired_Of_You
05-29-2005, 02:29 PM
I know it perfectly. Can't Repeat is really easy and I learned it in like 2 minutes.

Strider
05-29-2005, 02:50 PM
I learned it automatically as I first heard it :D

SeanAshmore
05-29-2005, 04:23 PM
i play drums in one band, ive been playin them for around 8 years now and guitar and singing in another band which ive been doin for around 5 years. the only trouble ive ever had was playin tehran on drums basically cus of the speed and complexity of it, well the intro stuff neway. but i got used to it as well.

Gayman
05-29-2005, 04:26 PM
i play drums in one band, ive been playin them for around 8 years now and guitar and singing in another band which ive been doin for around 5 years. the only trouble ive ever had was playin tehran on drums basically cus of the speed and complexity of it, well the intro stuff neway. but i got used to it as well.
I play drums too and Tehran really is veeeery hard to play!!! But I'm gonna practise on the song so I will do it right!!! :cool:

original_prankster
05-29-2005, 04:31 PM
Beheaded is pretty simple, too.

Gayman
05-29-2005, 04:38 PM
Beheaded is pretty simple, too.
With drums...???? mmmmmm...yeeah, but the beating on the ride is pretty hard to do for the whole song, it's so fast! :D

offspringintenselyrock
05-29-2005, 04:41 PM
What's Pori when it's at home in front of the fire?

Gayman
05-29-2005, 04:43 PM
What's Pori when it's at home in front of the fire?
What do you mean?

offspringintenselyrock
05-29-2005, 04:44 PM
What's Pori?

Gayman
05-29-2005, 04:47 PM
It's the city I live in....and Finland ,if you don't know, is my country....

offspringintenselyrock
05-29-2005, 04:49 PM
Oh! I thought it sounded very porridge-like. I live in sunny ol' England.

original_prankster
05-29-2005, 05:34 PM
With drums...???? mmmmmm...yeeah, but the beating on the ride is pretty hard to do for the whole song, it's so fast! :D
I meant on my guitar. I couldn't play drums if my life depended on it. :eek:

Fall-children
05-29-2005, 05:43 PM
here is da tab 4 fall children
-played throughout the song, in the intro with a strange effect and in the verses with some palm mutes-

A5 C5 F5 G5
e|---------------|
B|---------------|
G|-----5---------|
D|-7---5---3---5-|
A|-7---3---3---5-|
E|-5-------1---3-|


Interlude Riff:
-played over 'Main Chords'-

e|----------------------|
B|-10-8-8---------------|
G|--------9-9-7-7-9-----| 2x
D|----------------------|
A|----------------------|
E|----------------------|

e|-8-7------------------|
B|-----10-8-10~-(8-10~)-| 2x (play brackets only 2nd time)
G|----------------------|
D|----------------------|
A|----------------------|
E|----------------------|

Bridge:
-play one time just the 'Main Chords', then just bass, and then pickscrape and play this-

e|-------------------------------------------------|
B|-------------------------------------------------|
G|------------5-5------5-----------------------5---|
D|-7-7------7-5-5------5-3-3---3---3---3-5-----5-5-|
A|-7-7------7-3-3------3-3-3---3---3---3-5-----3-5-|
E|-5-5------5------------1-1---1---1---1-3-------3-|

Outro:
-I couldn't hear it well enough on the radio because the song started fading out, but play something like this (I'll update the tab when I'll get the full version of the song)-

e|---------------------------------|
B|---------------------------------|
G|---------4-4-4-4-5-5-5-5-7-7-7-7-|
D|-7-7-7-7-x-x-x-x-x-x-x-x-x-x-x-x-|
A|-x-x-x-x-2-2-2-2-3-3-3-3-5-5-5-5-|
E|-5-5-5-5-------------------------|

e|----------------------------------------|
B|----------------------------------------|
G|-17-17-17-17-16-16-16-16-17-16-14-12-14-|
D|--x--x--x--x--x--x--x--x--x--x--x--x--x-|
A|-15-15-15-15-14-14-14-14-15-14-12-10-12-|
E|----------------------------------------

e|-------------------------------|
B|-------------------------------|
G|-------------------------------|
D|-7-7-7---7-7-7---7-7-7---7-7-7-|
A|-7-7-7---7-7-7---7-7-7---7-7-7-|
E|-5-5-5---5-5-5---5-5-5---5-5-5-|
. . . . . . . .
this isnt my tab so thank you 2 who ever did get da tab


sorry but i want the bass :o

Tired_Of_You
05-29-2005, 06:20 PM
The bass is as easy as the guitar. I might be wong since I don't have a bass with me right now, but you only have to follow the guitar for the whole song.

Tired_Of_You
05-29-2005, 06:28 PM
http://www.ultimate-guitar.com/tabs/o/offspring/cant_repeat_btab.htm
this bass tab seems correct

0r4ng3
05-29-2005, 06:30 PM
Your guitar tab is wrong. The riff is in octaves, not single notes.

AlphaDrake
05-29-2005, 07:54 PM
Have you tried the drumline of "Gone Away"? I played it my second time on a drums set....wow that was a while ago.

TheUnholyNightbringer
05-29-2005, 08:01 PM
Jojan's a bass player, so he's no doubt talking about the bass. And Can't Repeat is no harder than most Offspring songs, which of course makes it appallingly easy.

Tired_Of_You
05-30-2005, 11:54 AM
Have you tried the drumline of "Gone Away"? I played it my second time on a drums set....wow that was a while ago.
I'm a shitty drummer and I can play it. It's not perfect everytime, but it's not that bad, so Gone Away must not be really hard.

notoriousdoc
05-30-2005, 12:49 PM
Jojan's a bass player, so he's no doubt talking about the bass. And Can't Repeat is no harder than most Offspring songs, which of course makes it appallingly easy.

It works for the guitar riff though

Dexter_Kyle
05-30-2005, 01:02 PM
I'm a shitty drummer and I can play it. It's not perfect everytime, but it's not that bad, so Gone Away must not be really hard.

I don't know if I'm a good drummer, but I can play really well Gone Away, and Gotta Get Away is easy too ^^!