PDA

View Full Version : Mission from God Tab



samr
06-02-2005, 09:58 PM
tabbed out by me.
guitar tab btw...

Verse:
|-------
|-------
|-------------------6-5-3 -8-6-3
|------ 3----- -6---6-5-3 -8-6-5
|------ 3----- -6---4-3-1—6-4-3
|-1111-1-4444-4-------------------------------

F G# C# C A# D# C# C


PRE CHORUS

C# C A D# C#

G#(hi) D# G#(hi) D#

C# C F C# C F

CHORUS

|-------
|-------
|-13-1010-8-101010-888888-
|-13-1010-8-101010-888888-9/101010101010
|-11 8--8- 6-8-8 8-- 666666-9/101010101010
|------------------------- --7/8--8-8-8--8—8

|-------
|-------
|-13-1010-8-101010---888888-
|-13-1010-8-101010---888888-9/101010101010
|-11 8--8--6-8--8--8--666666-9/101010101010
|------------------------------7/8--8-8-8--8--8

|-------
|-------
|-13-1010-8-101010-888888-
|-13-1010-8-101010-888888-9/101010101010
|-11 8--8--6-8--8--8--666666-9/101010101010
|-----------------------------------7/8--8-8-8--8--8


|-------
|-------
|---6666666666666666---8888888888888888
|-8-6666666666666666-8-8888888888888888
|-8-4444444444444444-8-6666666666666666
|-6--------------------6

|-------
|-------
|---------------------------66666666-55555555
|-33333333-66666666-66666666-55555555
|-33333333-66666666-44444444-33333333
|-11111111-44444444-------------

|-------
|-------
|---------------------66666666-55555555
|-33333333-66666666-66666666-55555555
|-33333333-66666666-44444444-33333333
|-11111111-44444444-------------


SOLO BIT

|-------
|-----------------------------12^ 10
|-|------------------------------------10
|------------------------6----------------
|-6h8-8-6h8-8-6h8-8--8---8
|-------

The (if I could save the world part) is just this

|-------
|-------
|---6666666666666666---8888888888888888
|-8-6666666666666666-8-8888888888888888
|-8-4444444444444444-8-6666666666666666
|-6--------------------6

|-------
|-----------------------------12^ 10
|-|------------------------------------10
|------------------------6----------------
|-6h8-8-6h8-8-6h8-8--8---8
|-------

and it ends on E#, followed by the hi hat, and back to the chorus.
Besides that, there are bits and changes every now and then, so just listen for those….

samr
06-03-2005, 09:20 AM
yep............

The-Offspring-RuLe
06-03-2005, 09:22 AM
Cheers dats sounds bang on!