Page 1 of 14 12311 ... LastLast
Results 1 to 10 of 136

Thread: Alkaline Trio

  1. #1


    Default Alkaline Trio

    So I searched the forums if this thread has been made before and I didn't get any other threads with this name, so there.

    Anyway, who here loves this band as much as I do? What are your favourite songs, albums or whatever?
    The songs that I love the most right now are The Poison, Smoke, Sadie, Your Neck, I Lied My Face Off, Queen Of Pain, Donner Party etc. etc. etc. Eh, I love all of their songs. But right now I'm more into 'Crimson'. Meh.
    You don't have bad luck. The reason bad things happen to you is because you're a dumbass.

  2. #2
    Join Date
    May 2005
    Posts
    546


    Default

    I like them, even though I haven't heard much from them.
    My favorite cd of theirs is From Here to the Infirmary.
    Actually, it's the only Alkaline Trio cd I have, but I really like it.

  3. #3
    Join Date
    Oct 2004
    Posts
    5,210


    Default

    The only thing I've heard from them is their new single, Time to Waste..pretty good..it's on my iPod

  4. #4
    Join Date
    Nov 2004
    Location
    Te(x/j)as
    Posts
    714


    Default

    Hey, I made one a hwile ago about alkaline trio.
    BUt in my thread, pople hated them.

  5. #5


    Default

    Quote Originally Posted by Turbonegro
    I like them, even though I haven't heard much from them.
    My favorite cd of theirs is From Here to the Infirmary.
    Actually, it's the only Alkaline Trio cd I have, but I really like it.
    Yeah, that album is kick ass.
    You should get other albums too. I downloaded all of them from Limewire.
    Quote Originally Posted by punkangel
    The only thing I've heard from them is their new single, Time to Waste..pretty good..it's on my iPod
    Yeah, that song is good. But there are better ones on that album.
    Quote Originally Posted by sk8ter-hater
    Hey, I made one a hwile ago about alkaline trio.
    BUt in my thread, pople hated them.
    But I searched the forums and nothing appeared. Are you sure?
    You don't have bad luck. The reason bad things happen to you is because you're a dumbass.

  6. #6
    Join Date
    Nov 2004
    Location
    Te(x/j)as
    Posts
    714


    Default

    Oh, maybe I just started a topic or something.

  7. #7


    Default

    I have all the songs off of Crimson on my computer. They're okay. They make me think of batteries.

  8. #8
    Join Date
    Apr 2005
    Location
    Bristol, England
    Posts
    4,885


    Default

    Quote Originally Posted by sk8ter-hater
    Hey, I made one a hwile ago about alkaline trio.
    BUt in my thread, pople hated them.
    I made one as well, nobody replied... But anyway, Their cover of The Metro is brilliant

  9. #9
    Join Date
    Apr 2005
    Location
    Bristol, England
    Posts
    4,885


    Default

    And Radio is as fun as hell to play


    E |----------------------------------------------------------------------|
    B |----------------------------------------------------------------------|
    G |-----11-----11-----9-----7-----9s11-----11-----11---------9-------9---|
    D |-0-0----0-0----0-0---0-0---0-0------9-9----9-9----9-0-7-7---7---7---7-|
    A |--------------------------------------------------------------0-------|
    E |----------------------------------------------------------------------|

    E |--------------------------------------------------------|
    B |--------------------------------------------------------|
    G |-----11-----11-----9-----7-----9s11-----11-----11-----7-|
    D |-0-0----0-0----0-0---0-0---0-0------9-9----9-9----9-0-9-|
    A |--------------------------------------------------------|
    E |--------------------------------------------------------|

  10. #10


    Default

    Hmm, I never heard of the 'The Metro' song. Who made that song originally?
    You don't have bad luck. The reason bad things happen to you is because you're a dumbass.

Posting Permissions

  • You may not post new threads
  • You may not post replies
  • You may not post attachments
  • You may not edit your posts
  •