Page 11 of 260 FirstFirst ... 9101112132161111 ... LastLast
Results 101 to 110 of 2600

Thread: The Official Green Day Thread

  1. #101
    Join Date
    Apr 2005
    Location
    Pyrgos
    Posts
    90


    Default

    So another pop album by Green Day...

  2. #102
    Join Date
    Aug 2005
    Location
    Glasgow
    Posts
    421


    Default

    Quote Originally Posted by GRfan
    So another pop album by Green Day...
    Unfortunately so

  3. #103
    Join Date
    Aug 2005
    Posts
    2


    Thumbs down Stay

    Chords used:

    E :022100
    A2 :002200
    B :024442
    C#m:046654
    D :XX0232
    Bm :024432
    C :032010

    Intro: E-A2-E(2x)

    E
    I believe
    A2 E
    we shouldnt let the moment pass us by
    E
    life's too short
    A2 E
    we shouldnt wait for the water to run dry


    B
    think about it
    C#m D
    cause we only have one shot at destiny

    all im asking
    E
    could it possibly be you and me?

    Chorus:
    A2 C#m D
    So if you'd still go, i'll understand
    Bm A2
    would you give me something just to hold on to?
    C#m D
    and if you'll stay, ill hold your hand
    Bm E-A2-E
    cause im truly, madly, crazily in love with you


    Verse 2:

    E
    Time has come
    A2 E
    for us to go our separate ways
    E
    God forbid
    A2 E
    But my mind is going crazy today

    B
    i feel so cold
    C#m
    feel so numb
    D
    im having nightmares but im awake

    Help me lord
    E
    Fight this loneliness

    Take this pain away


    Chorus:
    A2 C#m D
    So if you'd still go, i'll understand
    Bm A2
    would you give me something just to hold on to?
    C#m D
    and if you'll stay, ill hold your hand
    Bm (C-D-E)
    cause im truly, madly, crazily in love with you


    Adlib: C-D-E

    Chorus:
    A2 C#m D
    So if you'd still go, i'll understand
    Bm A5
    would you give me something just to hold on to?
    C#m D
    and if you'll stay, ill hold your hand
    Bm
    cause im truly, madly, crazily in love with you


    A2 C#m D
    Now that you're gone, im all alone
    Bm A2
    im still hoping that you would come back home
    C#m D
    dont care how long, but im willing to wait
    Bm A2
    Cause im truly, madly, crazily in love with you



    PINOY RULES!

  4. #104
    Join Date
    Aug 2005
    Posts
    2


    Arrow Stay

    Intro/Main Riff/Verse
    E-A
    |-------------------0--0--0--0--0--0---|
    |-------------------0--0--0--0--0--0---|
    |--1--1--1--1--1----2--2--2--2--2--2---|
    |--2--2--2--2--2----2--2--2--2--2--2---|
    |--2--2--2--2--2----0--0--0--0--0--0---|
    |--------------------------------------|

    before the verse the "A chord" would be:

    |--------------|
    |--5--5--5--5--|
    |--6--6--6--6--|
    |--7--7--7--7--|
    |--7--7--7--7--|
    |--------------|


    Pre-chorus
    B-C#m-D-E
    |----------------------------------------------------------|
    |----4--4--4--4---5--5--5--5---7--7--7--7---9--9--9--9-----|
    |----4--4--4--4---6--6--6--6---7--7--7--7---9--9--9--9-----|
    |----4--4--4--4---6--6--6--6---7--7--7--7---9--9--9--9-----|
    |----2--2--2--2---4--4--4--4---5--5--5--5---7--7--7--7-----|
    |----------------------------------------------------------|

    Chorus
    A-C#M-D-Bm
    |-------------------------------------------2--2--2--2-----|
    |----5--5--5--5---5--5--5--5---7--7--7--7---3--3--3--3-----|
    |----6--6--6--6---6--6--6--6---7--7--7--7---4--4--4--4-----|
    |----7--7--7--7---6--6--6--6---7- 7--7--7---4--4--4--4-----|
    |----7--7--7--7---4--4--4--4---5--5--5--5------------------|
    |----5--5--5--5--------------------------------------------|

    Bridge:
    |----0--0--0--0------2--2--2--2------------------|
    |----1--1--1--1------3--3--3--3------------------|
    |----0--0--0--0------2--2--2--2---1--1--1--1-----|
    |----2--2--2--2------0--0--0--0---2--2--2--2-----|
    |----3--3--3--3-------------------2--2--2--2-----|
    |---------------------------------0--0--0--0-----|

    or
    |-------------------------------------------------------------------|
    |----5--5--5--5---7--7--7--7---9--9--9--9--9--9--9--9--9------------|
    |----5--5--5--5---7--7--7--7---9--9--9--9--9--9--9--9--9------------|
    |----5--5--5--5---7--7--7--7---9--9--9--9--9--9--9--9--9------------|
    |----3--3--3--3---5--5--5--5---7--7--7--7--7--7--7--7--7------------|
    |-------------------------------------------------------------------|

  5. #105
    Join Date
    May 2005
    Location
    Cork, Ireland.
    Posts
    923


    Default

    what i hate about green day is that they are in all pop magazines. it sucks, yet they are still very good

  6. #106
    Join Date
    Dec 2004
    Location
    Brooklyn, New York
    Posts
    22,238


    Default

    Quote Originally Posted by irishpunkrockgirl
    what i hate about green day is that they are in all pop magazines. it sucks, yet they are still very good

    Aren't all magazines, by nature, "pop magazines"?
    Quote Originally Posted by PilZ-E View Post
    Wait, now you're trying to tell us the clitoris exists?

  7. #107
    Join Date
    May 2005
    Location
    Cork, Ireland.
    Posts
    923


    Default

    Quote Originally Posted by JohnnyNemesis
    Aren't all magazines, by nature, "pop magazines"?
    are they? .

  8. #108


    Default

    "Pop" is 'popular' for short, but it's turned into a music genre, also.

    So, yes, technically all magazines are pop magazines because they discuss things that are...well...popular.

  9. #109
    Join Date
    Oct 2004
    Location
    Appin, NSW, Australia
    Posts
    2,032


    Default

    Quote Originally Posted by irishpunkrockgirl
    what i hate about green day is that they are in all pop magazines. it sucks, yet they are still very good
    So don't read them. In the music industry, exposure is what sells records. If they don't get the exposure, sales would radically drop. And The Offspring were in pop magazines not that long ago.
    The Kuehn and Jones Orchestra
    True Sounds Of Liberty
    Nitro Nation on Myspace
    Myspace profile.
    People are like slinkies. Useless, but they still bring a smile to your face when you push them down a flight of stairs.

  10. #110
    Join Date
    Jul 2005
    Location
    Louisville KY, USA
    Posts
    1,400


    Default

    Quote Originally Posted by wishomie
    Green Day kicks ass.
    GO WISHOMIE I AGREE WITH U THEY KICK ASS!!!!!!!!!
    (\_/)
    (o.o)
    (> <)
    You know what I think? I think that church is for all the sissys out there who are afraid of going to hell.
    Boo-Fuckin-Hoo
    My Websites:
    LTProductions
    Metal-Mania(1)

Tags for this Thread

Posting Permissions

  • You may not post new threads
  • You may not post replies
  • You may not post attachments
  • You may not edit your posts
  •