Page 2 of 4 FirstFirst 1234 LastLast
Results 11 to 20 of 31

Thread: Rise And Fall, Rage And Grace guitar tabs

  1. #11
    Join Date
    Feb 2008
    Location
    Bratislava, Slovakia
    Posts
    5,820


    Default

    Quote Originally Posted by Raptor88 View Post
    .

    Damn, 9 posts and two mistakes already.... i must be in an abstinence chrisis from the lack of alcohol
    I know exactly what you're talking about. This day deserves a few beers.
    Quote Originally Posted by jsmak84 View Post
    Burn it up because you do not call ignition ............ Because ignition is born green and then ripens and becomes burn it up, which is yellow, then darkens and becomes a song that has yet to be published and will appear in a collection of b-sides and brown nell'accezione this song is a song from the session discarded of ignition.

  2. #12
    Join Date
    Dec 2004
    Location
    Denmark
    Posts
    1,209


    Default

    Nothingtown is so my new drinking song
    Don´t take life too seriously... you’ll never escape it alive anyway

  3. #13
    Join Date
    May 2008
    Location
    ENGLAND
    Posts
    1,121


    Default

    Quote Originally Posted by Superdope View Post
    Nothingtown is so my new drinking song
    nothingtown is the shit dude

    first was a bit average but now i love it guitar bit rocks!
    My Nothingtown Acoustic Cover:

    http://www.youtube.com/watch?v=YE9JblnThVk

  4. #14
    Join Date
    May 2008
    Location
    ENGLAND
    Posts
    1,121


    Default

    Stuff Is Messed up Tab:

    i've had a quick go at this one...please comment on any corrections:

    Intro
    ---------------
    ---------------
    --(6)-8----8-8-
    --(6)-8----8-8-
    --(4)-6----6-6-
    ---------------

    Verse:

    -----------
    -----------
    ---8-8-8-6
    ---8-8-8-6
    ---6-6-6-4
    -----------

    Chorus:

    --------------------
    --------------------
    --8-8-11-11-----6-6
    --8-8-11-11-6-6-6-6
    --6-6--9--9-6-6-4-4
    -------------4-4----

    If you have any links to tabs/ur own tabs please post
    My Nothingtown Acoustic Cover:

    http://www.youtube.com/watch?v=YE9JblnThVk

  5. #15
    Join Date
    May 2008
    Location
    ENGLAND
    Posts
    1,121


    Default

    Let's hear it for rock bottom - non ska bit:

    ------------------
    ------------------
    --7---7-7--------
    --7---7-7-7---7-5
    --5---5-5-7---7-5
    ----------5---5-3
    My Nothingtown Acoustic Cover:

    http://www.youtube.com/watch?v=YE9JblnThVk

  6. #16
    Join Date
    Jun 2008
    Location
    Portugal
    Posts
    24


    Default

    HammerHead tabs are quite easy

    Just power chords for the beginning heavy bit on the top E

    6-6-6-4-4
    6-6-6-4-4
    4-4-4-2-2

    and the part after that goes the same as mentioned above but just only the powerchord on the 2nd fret and another at the 4th after awhile...
    (This second part is played on the A string below the E)

    sorry if a bit confusing
    Last edited by Edycal; 06-10-2008 at 05:48 AM.

  7. #17
    Join Date
    May 2008
    Location
    ENGLAND
    Posts
    1,121


    Default

    A lot like me

    Intro:

    -------------------------------------------------------------------------------
    -------------------------------------------------------------------------------
    -----------------------7-7-7-7-7-7-7-7-----------------------9-9-9-9-9-9-9-9
    --9-9-9-9-9-9-9-9-9-9-7-7-7-7-7-7-7-7-7-7-7-7-7-7-7-7-7-7-9-9-9-9-9-9-9-9
    --9-9-9-9-9-9-9-9-9-9-5-5-5-5-5-5-5-5-7-7-7-7-7-7-7-7-7-7-7-7-7-7-7-7-7-7
    --7-7-7-7-7-7-7-7-7-7------------------5-5-5-5-5-5-5-5-5-5------------------


    another part:

    --------------------------------------------------
    --------------------------------------------------
    --------6-6-6-7-7-7-7-7-7-7-7-----9-9-9-7-7-7-6
    --9-9-9-6-6-6-7-7-7-7-7-7-7-7-----9-9-9-7-7-7-6
    --9-9-9-4-4-4-5-5-5-5-5-5-5-5-----7-7-7-5-5-5-4
    --7-7-7-------------------------------------------
    My Nothingtown Acoustic Cover:

    http://www.youtube.com/watch?v=YE9JblnThVk

  8. #18


    Default

    I can play Trust In You including solo, I'll record it later and post it on youtube. I dont have tabs, just played it by ear.

    Sorry (A)

  9. #19
    Join Date
    Aug 2005
    Posts
    101


    Default

    I will be tabbing the album in its entirety in powertab format.

  10. #20
    Join Date
    May 2008
    Location
    ENGLAND
    Posts
    1,121


    Default

    Fix you:

    pretty easy just repeats same guitar all the way through:

    --------------------------------------------------------------
    --------------------------------------------------------------
    --------------------------------------------------------------
    ------9-----9-9------9-----9-9------9-----9-9------9-----9-9
    --7-7--7--7------7-7--7--7-----------------------------------
    ---------------------------------7-7--7--7------7-7--7--7----

    --------------------------------------------------------------
    --------------------------------------------------------------
    --------------------------------------------------------------
    ------7-----7-7------7-----7-7-------------------------------
    --5-5--5--5------5-5--5--5----------7-----7-7------7-----7-7
    ---------------------------------5-5--5--5------5-5--5--5----
    My Nothingtown Acoustic Cover:

    http://www.youtube.com/watch?v=YE9JblnThVk

Tags for this Thread

Posting Permissions

  • You may not post new threads
  • You may not post replies
  • You may not post attachments
  • You may not edit your posts
  •