Page 3 of 4 FirstFirst 1234 LastLast
Results 21 to 30 of 31

Thread: Rise And Fall, Rage And Grace guitar tabs

  1. #21


    Default

    Here's my take on Trust in you.

    http://nl.youtube.com/watch?v=TgWqMl_A298

  2. #22
    Join Date
    May 2008
    Location
    ENGLAND
    Posts
    1,121


    Default

    Quote Originally Posted by crrrN View Post
    Here's my take on Trust in you.

    http://nl.youtube.com/watch?v=TgWqMl_A298
    awesome vid.
    My Nothingtown Acoustic Cover:

    http://www.youtube.com/watch?v=YE9JblnThVk

  3. #23


    Default

    Thanks. I messed it up, but it's okay

  4. #24
    Join Date
    Dec 2004
    Location
    Denmark
    Posts
    1,209


    Default

    I've got nothingtown nailed.. give me a few secs, and I'll see if I can transcribe it...

    Intro
    |--------------------------------------------------------|
    |--------------------------------------------------------|
    |--9-9-8-8-6-6-4-4-2-2-4-4-9-9------9-9-9-9-9-9-9-9---|
    |--9-9-8-8-6-6-2-4-2-2-4-4-9-9------9-9-9-9-9-9-9-9---|
    |--7-7-6-6-4-4-2-2-0-0-2-2-7-7------7-7-7-7-7-7-7-7---|
    |--------------------------------------------------------|
    ---------------------------------------xxxxP.Mxxxx

    Verse
    |--------------------------------------------------------------------------|
    |--------------------------------------------------------------------------|
    |--9-9--------9-9-9-6-6--------6-6-6-2-2--------2-2-2-4-4-4-4-4-4-4-4---|
    |--9-9--------7-7-7-4-4--------6-6-6-2-2--------2-2-2-4-4-4-4-4-4-4-4---| x3
    |--7-7--------7-7-7-4-4--------4-4-4-0-0--------0-0-0-2-2-2-2-2-2-2-2---|
    |--------------------------------------------------------------------------|
    -------------------------------------------------------xxxxP.Mxxxx
    Chorus
    |----------------------------------------------|
    |----------------------------------------------|
    |--2-2-2-2-2-4-4-4-4-4-4--9-9-8-8-6-6-4-4---| x 2
    |--0-0-0-0-0-2-2-2-2-2-2--9-9-8-8-6-6-2-4---|
    |--0-0-0-0-0-2-2-2-2-2-2--7-7-6-6-4-4-2-2---|
    |----------------------------------------------|


    |------------------------------------------------------------------------|
    |------------------------------------------------------------------------|
    |--2-2-2-2-2-4-4-4-4-4-4--------------6-6-4-4--2-2-2-2-2-4-4-4-4-4---|
    |--0-0-0-0-0-2-2-2-2-2-2--6-6-6-6-6--6-6-4-4--2-2-2-2-2-4-4-4-4-4---|
    |--0-0-0-0-0-2-2-2-2-2-2--6-6-6-6-6--4-4-2-2--0-0-0-0-0-2-2-2-2-2---|
    |---------------------------4-4-4-4-4-----------------------------------|

    |---------------------------------------------------|
    |---------------------------------------------------|
    |--9-9---9-9-9-6-6---6-6-6-9-9---9-9-9-4-4-4-4---|
    |--7-7---7-7-7-4-4---4-4-4-7-7---7-7-7-4-4-4-4---|
    |--7-7---7-7-7-4-4---4-4-4-7-7---7-7-7-2-2-2-2---|
    |---------------------------------------------------|
    Last edited by Superdope; 06-11-2008 at 01:01 AM.
    Don´t take life too seriously... you’ll never escape it alive anyway

  5. #25
    Join Date
    Sep 2007
    Posts
    27


    Default

    KRISTY TAB PLEASE
    my ear isnt great. somepeople are gifted. please if you are help me with kristy? i plan on turning it into an acoustic performance, ive done it with other songs before.

  6. #26
    Join Date
    Sep 2007
    Posts
    27


    Default

    oh yeah and pm me with it plz

  7. #27
    Join Date
    Aug 2005
    Posts
    101


    Default

    http://www.mediafire.com/?mawromy5mxs

    That's a zip file of powertabs for Hammerhead, You're Gonna Go Far Kid, Trust in You, Stuff is Messed Up, and A Lot Like Me. I will do some more tomorrow.

  8. #28
    Join Date
    Dec 2005
    Location
    Victoria, British Columbia, Canada
    Posts
    4,427


    Default

    most of the songs i listened to so far are easy. HH, H-T, and TIY are easy, I havent had a go at YGGF,K yet (although i already know the generall chords), and I cant figure out O.C. Life. i know the Chords too, but i cant play them in the right rythm for some reason.
    im not listening to the other songs until the album is out.
    Check out my music -> Random Goods

  9. #29
    Join Date
    May 2008
    Location
    ENGLAND
    Posts
    1,121


    Default

    Quote Originally Posted by Superdope View Post
    I've got nothingtown nailed.. give me a few secs, and I'll see if I can transcribe it...

    Intro
    |--------------------------------------------------------|
    |--------------------------------------------------------|
    |--9-9-8-8-6-6-4-4-2-2-4-4-9-9------9-9-9-9-9-9-9-9---|
    |--9-9-8-8-6-6-2-4-2-2-4-4-9-9------9-9-9-9-9-9-9-9---|
    |--7-7-6-6-4-4-2-2-0-0-2-2-7-7------7-7-7-7-7-7-7-7---|
    |--------------------------------------------------------|
    ---------------------------------------xxxxP.Mxxxx

    Verse
    |--------------------------------------------------------------------------|
    |--------------------------------------------------------------------------|
    |--9-9--------9-9-9-6-6--------6-6-6-2-2--------2-2-2-4-4-4-4-4-4-4-4---|
    |--9-9--------7-7-7-4-4--------6-6-6-2-2--------2-2-2-4-4-4-4-4-4-4-4---| x3
    |--7-7--------7-7-7-4-4--------4-4-4-0-0--------0-0-0-2-2-2-2-2-2-2-2---|
    |--------------------------------------------------------------------------|
    -------------------------------------------------------xxxxP.Mxxxx
    Chorus
    |----------------------------------------------|
    |----------------------------------------------|
    |--2-2-2-2-2-4-4-4-4-4-4--9-9-8-8-6-6-4-4---| x 2
    |--0-0-0-0-0-2-2-2-2-2-2--9-9-8-8-6-6-2-4---|
    |--0-0-0-0-0-2-2-2-2-2-2--7-7-6-6-4-4-2-2---|
    |----------------------------------------------|


    |------------------------------------------------------------------------|
    |------------------------------------------------------------------------|
    |--2-2-2-2-2-4-4-4-4-4-4--------------6-6-4-4--2-2-2-2-2-4-4-4-4-4---|
    |--0-0-0-0-0-2-2-2-2-2-2--6-6-6-6-6--6-6-4-4--2-2-2-2-2-4-4-4-4-4---|
    |--0-0-0-0-0-2-2-2-2-2-2--6-6-6-6-6--4-4-2-2--0-0-0-0-0-2-2-2-2-2---|
    |---------------------------4-4-4-4-4-----------------------------------|

    |---------------------------------------------------|
    |---------------------------------------------------|
    |--9-9---9-9-9-6-6---6-6-6-9-9---9-9-9-4-4-4-4---|
    |--7-7---7-7-7-4-4---4-4-4-7-7---7-7-7-4-4-4-4---|
    |--7-7---7-7-7-4-4---4-4-4-7-7---7-7-7-2-2-2-2---|
    |---------------------------------------------------|
    great tab thanks...u don't happen to know the soloie bit after the bass soloie bit?
    My Nothingtown Acoustic Cover:

    http://www.youtube.com/watch?v=YE9JblnThVk

  10. #30
    Join Date
    Sep 2007
    Posts
    27


    Default Kristy Are You Doing Okay?

    kristy tabb!!!
    its actually a hard song to play as far as offspring goes. you need a big hand. unless theres another way to play it??
    anyway i tabbed it out please comment on it because i need help and if you comment it goes to the top of the thread chart thingy and every1 sees it and i need help on how to play it better -.-
    thanks guys
    http://www.offspring.com/forums/showthread.php?t=33015

Tags for this Thread

Posting Permissions

  • You may not post new threads
  • You may not post replies
  • You may not post attachments
  • You may not edit your posts
  •